#1
Can anyone please tab It Had To Be You by Motion City Soundtrack for me? Thanks.
Quote by SeveralSpecies
How the f*ck are you gonna get a cat to bark?


---------------------------5------8-----7-
----------------5-------------------------
------------------1-3-3-------/6----/5----
-1/3--1-1h3-------------------------------


Matt Freeman>You
#3
Quote by SeveralSpecies
How the f*ck are you gonna get a cat to bark?


---------------------------5------8-----7-
----------------5-------------------------
------------------1-3-3-------/6----/5----
-1/3--1-1h3-------------------------------


Matt Freeman>You