#3
i just tabbed this part out thinking it was useful, but i guess its just an intro for "Interworld And The New Innocence" that he threw in.
http://www.youtube.com/watch?v=E3FWE4WpBeY
nothing complicated.

(tuned down 1/2 step)              1st repeat     2nd repeat
Eb|------------------------------|--------------|-------------|
Bb|------------------------------|--10---10----*|--6---6------|
Gb|-----------------------7-7-7--|-----7----7---|----7---7----|
Db|--------------11-11-11--------|-------------*|-------------|
Ab|--------9-9-9-----------------|--------------|-------------|
Eb|--7-7-7-----------------------|--------------|-------------|


Eb|------------------------------------|--------------------------|
Bb|-----------------------------------*|--------------------------|
Gb|--------------------4-4-4-----------|--------------------------|
Db|--------------7-7-7-------5-4-5-4--*|--------------------------|
Ab|--------5-5-5-----------------------|--------------------------|
Eb|--3-3-3-----------------------------|--------------------------|