#1
I hope I'm in the right spot but if you guys could just help me with the names of these four chords that would be fantastic.

e--7--5--5--3
B--8--5--7--3
G--9--6--7--4
D--9--7--7--5
A--7--7--5--5
E----- 5-----3


hopefully this comes out right.

thanks in advance
www.myspace.com/chrishausman

If you would like to add me, send me a message to let me know your from UG!

Tool - July 16
Incubus - Aug 6

^INCREDIBLE^
#2
Quote by FriggenCarl
I hope I'm in the right spot but if you guys could just help me with the names of these four chords that would be fantastic.

e--7--5--5--3
B--8--5--7--3
G--9--6--7--4
D--9--7--7--5
A--7--7--5--5
E----- 5-----3


hopefully this comes out right.

thanks in advance

E minor
A major
D major
G major