#1
E:|-------------------------------------------------------------
B:|---10---8--7-----10--8--7----10---8------10---8-----10-\-8---
G:|------------------------------------------9------------9----------|
D:|-------------------------------------------------------------|
A:|-------------------------------------------------------------|
E:|-------------------------------------------------------------|

E:|------------------------10--10^--(10)----------------|
B:|-10-^-(10)8--10-^-------------------full------------|
G:|------------------------------------------9-^-----------|
D:|----------------------------------------------|
A:|----------------------------------------------|
E:|----------------------------------------------|

this is the fill part from sweet child o mine and i know the first part, pretty simple. but that second part... ive never seen tablature like that before?! how is that supposed to be played?
#4
Yeah the lil arrows mean bends and the notes in brackets (the 10's) are what you bend back to but don't pick them.
Quote by Alter-Bridge
If I had sex as much as you said the word "shit" I would be paris hilton.


Quote by rworsl
I have never felt closer to either cheese or weasels


Quote by Vermintide

DURN THING DUN GONE MESS UP AGIYAN. MARGE, FETCH ME MAH BOOMSTIYAK
#6
ya those ^ after the fret numbers mean to bend it in this case i believe slash bends it a full step and then on the last bend at 10 you have to hold the bend for a second and then slowly bring it back .
Anything that is too stupid to be spoken is sung - Voltaire(1694-1778)

I always thought the good thing about the guitar was that they didn't teach it in school. - Jimmy Page
#8
a ghost note is when the string is already bent or you bend it and then strum?

and what does it mean when he wrote full in there?