#1
Anyone here heard of the band Thieves and Liars? Theyre a modern classic southern rock band. I think theyre awesome.
#2
Yea, I've heard of them. They are extremely awesome at that. The sad thing is, I can't make tabs myself, and I can't find any for this band either. I love the guitar in their songs, but I can't play it!
#3
ya, i like them too. they are from my hometown of San Diego. they sound like led zeppelin. i wish somebody would do the tabs.
#4
***************************************
Band: Thieves & Liars
Music: Slavin` Away
Album: When Dreams Become Reality
***************************************
TAB by: Guilherme Bury(guilherme_bf@yahoo.com.br)

Intro A,
RIFF 1 (8x)


RIFF 1
Momma I’ve been working all day long

RIFF 1
Can’t find a place to rest my head

RIFF 2
My back is aching, fingers wearing down to the bone

RIFF 1
Is it all for nothing?

RIFF 1---------------------C D
Yes its all for nothing


A G
I want to go so I give it up to the one who knows my name

D A
Another day at the reigns is mental pain and I will scream

A G
The same thing every day is driving me to go insane

D A
Only one can grant your freedom someday

RIFF 1 (4x)

RIFF 1
Momma I’ve been slaving all day long

RIFF 1
Can’t tell which way is up or down

RIFF 2
I’m crying out for the Lord to rain some grace from above

RIFF 1------------------C D
And it starts raining


A G
I want to go so I give it up to the one who knows my name

D A
Another day at the reigns is mental pain and I will scream

A G
The same thing every day is driving me to go insane

D A
Only one can grant your freedom someday


SOLO: A G D A (2x)


DRUM and BASS: A G D A


DRUM and BASS:
A G
I want to know which way that Im to turn

D A
I give it up to the one who knows my name so i can learn

A G
Praying for my God to tell me how

D A
To keep moving on when life is getting you so down

A G
I want to know which way that I´m to turn

D
I give it up to the one who knows my name


A G
I want to go so I give it up to the one who knows my name

D A
Another day at the reigns is mental pain and I will scream

A G
The same thing every day is driving me to go insane

D A
Only one can grant your freedom someday

RIFF (4X) A-A


RIFF 1
e|------------------------------------------------------------------------------|
B|------------------------------------------------------------------------------|
G|--2---------------------------------------------------------------------------|
D|--2---------------------------------------------------------------------------|
A|--0---0-3-0-5-0-6-0-5-0-3-0-5-3-0-0----------------------------------|
E|------------------------------------------------------------------------------|


RIFF 2
e|------------------------------------------------------------------------------|
B|------------------------------------------------------------------------------|
G|------------------------------------------------------------------------------|
D|------------------------------------------------------------------------------|
A|--2---------------------------------------------------------------------------|
E|--0---0-3-0-5-0-6-0-5-0-3-0-5-3---------------------------------------|


Note: The solo can be done with an improvisation of penta of Am, remembering that you get closer to the original should be done all the chords in Power Cord (I, V and VIII) to give them "air" of the'70s
God Bless
Last edited by Bury at Dec 23, 2008,