#1
So long story short, im trying to make some lead guitar parts from some vocal phrases in a song. The song is Standing In The Way Of Control by The Gossip. Ive been looking for vocal sheets on the web but the only things I have found are for sale, seeing as im only going to be playing this song once its not really worth it.

Can anyone help me figure out some of these vocal phrases on guitar? Or possibly direct me to some sheet music for the vocals. Thanks in advance.

The song can be heard here:
http://www.youtube.com/watch?v=4i_c7VU-IgE
#2
I've done a little bit, it's not totaly right but you get the idea I think...




e-5----5------5-5-----5--5--------5------5--5---5----5--5----
B------------------------------------------------------------
G------------------------------------------------------------
D------------------------------------------------------------
A------------------------------------------------------------
E------------------------------------------------------------

  your back's against the wall    there's no one home to call

e-5--5--5-3-3---3----3---3-------------------8-5---
B-------------------------3h5--5--5----8-----------
G--------------------------------------------------
D--------------------------------------------------
A--------------------------------------------------
E--------------------------------------------------
 

 your forgetting who you are  you can't stop crying

e--5---------------------------------5-------------------
B-8--8-5-8--5-5-8-10-8---10--10/8--8--8-5-8--5-5--8-10/8-
G------------7--------------------------------7----------
D--------------------------------------------------------
A--------------------------------------------------------
E--------------------------------------------------------
  Woah..................................................


e----------------------------------12-10-----------
B-10-10---10-10-10---10--10-10/13--------13-10-10--
G--------------------------------------------------
D--------------------------------------------------
A--------------------------------------------------
E--------------------------------------------------

 standing in the way of control

e-------------------------------------
B-10-10-10-10-10-10-10-10/13--10/13---
G-----------------------------------12
D-------------------------------------
A-------------------------------------
E-------------------------------------