#1
I start with showing the tab


Riff 1
Guitar 1 (slight palm mutes)      x4
e|-5-----4-----7---5-----4-----7---|
B|---5-----5---------5-----5-------|
G|-----6-----6---6-----6-----6---6-|
D|---------------------------------|
A|---------------------------------|
E|---------------------------------|


What finger on what fret is the easiest way? For my it all gets pretty messed up i take my middle finger in the 5th fret in the b-string and the indexfinger right under on 5th fret in the e-string. And that doesnt feel comfortable and it feels messed up like im doing it more diffficult then it should be.

How do you play it? And for you who like megadeth you might now the song, its lucretia.
#2
id bar it at first and when it goes to the 4th fret on the e string i'd just change shapes
Gear:
Jackson SL-3 Soloist w/ licensed Floyd Rose
Peavey VK 100 Head
Earcandy Boa 2X12 Cab w/ 70 watt Speakers
Fender Frontman 15 Watt Practice Amp

I'M SELLING A HOHNER HR1000 GUITAR. PM ME FOR INFO.
#3
i say for the A u bar with ur index and hit C# with ur middle
then with G# u hit index E with you middle and C# with ur ring
then B with ur index and C# with ur middle
#4
Riff 1
Guitar 1 (slight palm mutes)     
   1 1 2 1 2 3 4 3 1 1 2 1 2 3 4 3
e|-5-----4-----7---5-----4-----7---|
B|---5-----5---------5-----5-------|
G|-----6-----6---6-----6-----6---6-|
D|---------------------------------|
A|---------------------------------|
E|---------------------------------|


Is how I would play it. Haven't tried though.
Quote by Pookie6
Yngwi3, You win this whole monstrosity of a thread.

Quote by uk.mace
For the best tingle, use Original Source mint. That shit feels amazing on your balls.


Godfather of The Diezel Mafia
#5
just do fingers 1, 2, 3 on frets 4, 5, 6 and move your pinkie around....
My Gear:

Guitars:
Epiphone Les Paul Standard
Fender American Strat
Yamaha Acoustic

Amps:
Peavey Transtube Bandit 112

Effects:
DigiTech rp350 (For Sale)
BOSS RC-20 XL Loop Station
BOSS GT-10


Rock on!
#6
Quote by Yngwi3
Riff 1
Guitar 1 (slight palm mutes)
1 1 2 1 2 3 4 3 1 1 2 1 2 3 4 3
e|-5-----4-----7---5-----4-----7---|
B|---5-----5---------5-----5-------|
G|-----6-----6---6-----6-----6---6-|
D|---------------------------------|
A|---------------------------------|
E|---------------------------------|


Is how I would play it. Haven't tried though.


i fail to see how u would hit that B with ur pinky while ur ring hits the c#