#1
This is a song i just wrote i dont know wether its good or not. But its not completly done but some of it is. its kinda slow but not to slow. just no death metal.
its tuned down a half step so remeber that.
Its called Hillsides

Intro
E----------------------------------------------------------------
B----------------------------------------------------------------
G----------------------------------------------------------------
D----------------------------------------------------------------
A----------------------------------------------------------------
E-5h6-6-6-6-8-6-4-4-2-------------------------------------------

E----------------------------------------------------------------
B----------------------------------------------------------------
G----------------------------------------------------------------
D----------------------------------------------------------------
A----------------------------------------------------------------
E-5h6-6-6-6-8-6-4-4-2-2-1111-------------------------------------

Chorus Part 1
E----------------------------------------------------------------
B----------------------------------------------------------------
G----------------------------------------------------------------
D-7--7-7-7-9-7-5-5-4---------------------------------------------
A-7--7-7-7-9-7-5-5-4---------------------------------------------
E-5--5-5-5-7-5-3-3-2---------------------------------------------

Chorus Part 2
E----------------------------------------------------------------
B----------------------------------------------------------------
G----------------------------------------------------------------
D-6h7--7-7-7-9-7-5-5-4-4--3333-----------------------------------
A-6h7--7-7-7-9-7-5-5-4-4--3333-----------------------------------
E-4h5--5-5-5-7-5-3-3-2-2--1111-----------------------------------

Chorus Part 3
E----------------------------------------------------------------
B----------------------------------------------------------------
G----------------------------------------------------------------
D-7-7-7-7-5-5-7-7-7-7-5-9-9-9-9-5-9-9-9-9-5-5--------------------
A-7-7-7-7-5-5-7-7-7-7-5-9-9-9-9-5-9-9-9-9-5-5--------------------
E-5-5-5-5-3-3-5-5-5-5-3-7-7-7-7-3-7-7-7-7-3-3--------------------

Chorus Part 1
E----------------------------------------------------------------
B----------------------------------------------------------------
G----------------------------------------------------------------
D-7--7-7-7-9-7-5-5-4---------------------------------------------
A-7--7-7-7-9-7-5-5-4---------------------------------------------
E-5--5-5-5-7-5-3-3-2---------------------------------------------

Chorus Part 2
E----------------------------------------------------------------
B----------------------------------------------------------------
G----------------------------------------------------------------
D-6h7--7-7-7-9-7-5-5-4-4--3333-----------------------------------
A-6h7--7-7-7-9-7-5-5-4-4--3333-----------------------------------
E-4h5--5-5-5-7-5-3-3-2-2--1111-----------------------------------

but just comment and tell me what you think thanks tons peeple
#2
thats nice and all, but how are we supposed to know the rhythm, pauses, strumming, etc without a recording?

think before you post or get guitar pro
Quote by cakeandpiemofo
Quote by tuwyci
why are metal musicians prone to fatness?
Cause there music is heavy.


Writing music is hard D: