#1
Regular Tuning.

Clean:
|E|-----------------------------------------------------------------------------------------
|B|-----------------------------------------------17-15----------------------------------
|G|---------17-15--------17-15--------17-15--------17-15--------------------------
|D|-17-15--------17-15--------17-15-------------------------------------------------
|A|-----------------------------------------------------------------------------------------
|E|----------------------------------------------------------------------------------------- x 4

E------------------------------------------------------------------------------------------
B------------------------------------------------17-16----------------------------------
G--------16-15---------16-15--------16-15----------16-15-------------------------
D-17-15---------17-15--------17-16-------------------------------------------------
A-----------------------------------------------------------------------------------------
E------------------------------------------------------------------------------------------ x4

Heavy Distortion:
E-----------------------------------------------------------------------------------------
B-----------------------------------------------------------------------------------------
G-----------------------------------------------------------------------------------------
D--13--11-------------------13--11---------------------------------------------------
A------------13—11b--10-------------13--11—10b---------------------------------
E----------------------------------------------------------------------------------------- x4


E-----------------------------------------------------------------------------------------
B-----------------------------------------------------------------------------------------
G-----------------------------------------------7b—5----------------------------------
D------------------------7b-5-7b-5-5b-5-5b---------5b-5--------------------------
A-9b-8b-7b-6b-5b-5----------------------------------------5b------------4---4---
E------------------------------------------------------------------6-5-4-3---2---2----

E-------------------------------5-4-3-------------------------------------------------
B--------------------------3-5--------3b---------------------------------------------
G--------------------3-5b----------------3-4-5b-------------------------------------
D---------------3-4b------------------------------3-4-5-5b-5-5b 5-----------------
A-1-1------3-5-------------------------------------------------------3-4-3-0-3------
E-3-3--3-5------------------------------------------------------------------------3h5 x4

E-0h3-0h3-h3-0h3-0h5-0h5-0h5-0h5-6-7-8-7---------------------------------
B------------------------------------------------------11b-----11b--------------------
G----------------------------------------------------------11b------11b/17-18------
D----------------------------------------------------------------------------------------
A----------------------------------------------------------------------------------------
E----------------------------------------------------------------------------------------

E------------------------8p9—10------------------------------------------------------
B—----------------------------------9b-------------------------------------------------
G---17/9b--7—9b---------------------------------------------------------------------
D----------------------------------------------------------------------------------------
A-----------------------------------------------------------------------------------------
E---------------------------------------------------------------------------


Be nice
Dean Z-X Fund: $50 out of $200 (25%)

My Gear:
Guitar: Schecter C-1 Elite
Amp: B-52 ST-6012
Pedals/Other: BOSS Dynamic Wah, BOSS Metal Zone MT-2

Massive Failure
Last edited by Massive Failure at Feb 22, 2008,
#2
If you put this into a powertab, everyone would be able to crit it better because they could know what you want it to sound like. Most people will play a tab that they've never seen or heard before differently than it was written.

EDIT: I don't know the timing of the notes, but the first distortion part sounds like old SOAD.

2nd EDIT: Yeah, I really can't tell what you wanted it to sound like.
Signature temporarily empty
Last edited by Lord Of Donkeys at Feb 22, 2008,
#3
Quote by Lord Of Donkeys
If you put this into a powertab, everyone would be able to crit it better because they could know what you want it to sound like. Most people will play a tab that they've never seen or heard before differently than it was written.

EDIT: I don't know the timing of the notes, but the first distortion part sounds like old SOAD.

2nd EDIT: Yeah, I really can't tell what you wanted it to sound like.

Dude I totally agree.