#1
COPY AND PASTE IT INTO MICROSOFT WORD TO PLAY IT RIGHT

Distortion: Clean, with small amount of Fangle
Reverb: Yes, a little
Speed: Slow
Tuning: Standard

Title: Spring

I wrote this, and if you want to record it, PM me and I'll tell you more. It is an easy song to play, and I think it sounds really good. If you record this song for me, we will split the credit.


E|-------------------------------------------------------------|
B|-------------------------------------------------------------|
G|-------------------------------------------------------------|
D|-4b-2-0-2----4b-2-0-2-4b-2-0-2—--4b-2-0-2------|
A|-------------------------------------------0-2-0-------------|
E|-------------------------------------------------------------| x4

E|-------------------------------------------------------------|
B|-------------------------------------------------------------|
G|-------------------------------------------------------------|
D|--0-2-0---0-2-0---0-2-0---2-3-0---------2-4-2----------------|
A|--------4-------4-------4-------2h4p2-0-------0--------------|
E|-------------------------------------------------------------|

E|-------------------------------------------------------------|
B|-------------------------------------------------------------|
G|4b-2-0-2----4b-2-0-2-4b-2-0-2—--4b-2-0-2---------------------|
D|-----------------------------------------0-2-0---------------|
A|-------------------------------------------------------------|
E|-------------------------------------------------------------| x2

E|-------------------------------------------------------------|
B|-------------------------------------------------------------|
G|--2-0-4b-2-0---2-0-4b-2-0---2-0-4b-2-0-----------------------|
D|-------------3-----------4-----------------------------------|
A|-----------------------------------------0---0---0-----------|
E|---------------------------------------2---3---0---1p0-------|

E|-------------------------------------------------------------|
B|-------------------------------------------------------------|
G|4b-2-0-2----4b-2-0-2-4b-2-0-2—--4b-2-0-2---------------------|
D|-----------------------------------------0-2-0---------------|
A|-------------------------------------------------------------|
E|-------------------------------------------------------------| x2

E|-------------------------------------------------------------|
B|-------------------------------------------------------------|
G|-------------------------------------------------------------|
D|-----2-0-2-----2-0-------------------------------------------|
A|---0---------0-----0------4-2-0-2-0--------------------------|
E|-0---------0--------0-1-0------------------------------------|


If your not going to record it tell me what you think otherwise. 2nd song ever.
Dean Z-X Fund: $50 out of $200 (25%)

My Gear:
Guitar: Schecter C-1 Elite
Amp: B-52 ST-6012
Pedals/Other: BOSS Dynamic Wah, BOSS Metal Zone MT-2

Massive Failure
Last edited by Massive Failure at Feb 22, 2008,