#1
i've just got my frist guitar yesterday
but over chirstmas my brother had his guitar home and i has playing it (for 3 weeks)

i can play alot for barley 3 weeks at playing but i can only do tabs
so what i want to know is what are some of the basic cords
and what are they in tab form?


much love & thankies
i design CD covers and Band Logos.
see my website for requests and exsamples of my work
Miss Morphine Designs
#2
Quote by morphine-love
i've just got my frist guitar yesterday
but over chirstmas my brother had his guitar home and i has playing it (for 3 weeks)

i can play alot for barley 3 weeks at playing but i can only do tabs
so what i want to know is what are some of the basic cords
and what are they in tab form?


much love & thankies


You're from Ireland and can't type English? =(
#3
Sorry if the tab's a bit messed up....(The strings with no numbers you dont hit)

This is A
E--------0-------------
B--------2------------
G--------2------------
D--------2------------
A--------0-------------
E---------------------

Here's G
E------3--------------
B------2---------------
G-----0---------------
D-----0---------------
A-----0---------------
E-----3---------------

And E
E-----0---------------
B-----0---------------
G-----1---------------
D-----2---------------
A-----2---------------
E-----0---------------

This is what is known as "D"
E-------2--------------
B-------3--------------
G-------2--------------
D-------0--------------
A---------------------
E---------------------

And C:
E----0-----------------
B----1-----------------
G----0-----------------
D----2-----------------
A----3-----------------
E---------------------

A Simple version of B:
E------2---------------
B------4---------------
G------4---------------
D------4---------------
A---------------------
E---------------------

Heres a real monster chord - F: (You hold down the 1's on the E and B strings with your index and use your other fingers to hold down everything else)
E----1-----------------
B----1-----------------
G----2-----------------
D----3-----------------
A---------------------
E---------------------

Hope this helps (If no one has done this before me......) Happy playing!!!
Punctuation it the difference between:
"I help my Uncle Jack off a horse."
and
"i helped my uncle jack off a horse"


Quote by roadmax
..and how do i make the bridge erect. ..


Quote by Vampire 255
make it watch porn?

#4
Quote by ESte
You're from Ireland and can't type English? =(


yes i can
why? what was wrong with what i typed?
i design CD covers and Band Logos.
see my website for requests and exsamples of my work
Miss Morphine Designs
#5
Quote by morphine-love
yes i can
why? what was wrong with what i typed?


I'm asking myself the same thing....

Everyone on this forum makes spelling mistakes.
Punctuation it the difference between:
"I help my Uncle Jack off a horse."
and
"i helped my uncle jack off a horse"


Quote by roadmax
..and how do i make the bridge erect. ..


Quote by Vampire 255
make it watch porn?

#6
FYI, if you want tabs to line up in the forums, put them in "code" tags. (Like when you put a b in brackets to make something bold, put the word code in brackets, then /code).
#7
Quote by sonixon
FYI, if you want tabs to line up in the forums, put them in "code" tags. (Like when you put a b in brackets to make something bold, put the word code in brackets, then /code).


I'm sorry - not following you..
Punctuation it the difference between:
"I help my Uncle Jack off a horse."
and
"i helped my uncle jack off a horse"


Quote by roadmax
..and how do i make the bridge erect. ..


Quote by Vampire 255
make it watch porn?

#8
Quote by Black Adder
I'm asking myself the same thing....

Everyone on this forum makes spelling mistakes.


it doesn't help i'm dislexsic aswell lol
spelling is litrally impossable for me :'(
i design CD covers and Band Logos.
see my website for requests and exsamples of my work
Miss Morphine Designs
#10
Quote by sonixon
https://www.ultimate-guitar.com/forum/misc.php?do=bbcode#code

Using the code tags puts it in the "tab font" (which is "courier") and lines everything up for you.


OK cool. Thanks!
Punctuation it the difference between:
"I help my Uncle Jack off a horse."
and
"i helped my uncle jack off a horse"


Quote by roadmax
..and how do i make the bridge erect. ..


Quote by Vampire 255
make it watch porn?

#11
the G is flip-flopped... but other than that those chords are good. there are some minor chords as well...