#1
Do you guys know any one fingered songs on only one fret? I do, only one.
Can you list them here?
Smoke on water on 6th string:
Open
3
5
Open
3
6
5
Open
3
5
3
Open

Simple one finger songs.
If you dont get it, just say it, its not that hard, I just want simple songs.
Avenged Sevenfold Fan, proud of it.
#2
pretty much anything by linkin park just look up the tabs on this site and tune to drop d
#4
SOTW is done on two strings, the main riff anyways...


one finger/one fret songs dont really exist unless you're a crap bassist who just pumps out root notes on the low e string. im not saying bassists are crap, but bassist who just play roots annoy me.
Quote by cakeandpiemofo
Quote by tuwyci
why are metal musicians prone to fatness?
Cause there music is heavy.


Writing music is hard D:
#6
With all respect.
a). There are hundreds of threads for easy songs, use the search bar to find them.
b). Why do you want to play with one finger? go learn some chords.
I wish I had tallent and ability.

Squier Vintage Modified Strat, Black with laquered 70s neck
Farida FLP-26
Vox VT20+
Ampkit for iPod
Jamvox (not impressed)
#8
I was gonna say breaking the law by Judas Preist.... fairly simple riff, and a good one too!
#9
Crazy Train Riff. The actuall bass part:

E-B-G-D-A-E Tuning

These are not one finger. But easy as Hell.

A------0-0----------5-5---------
E-2-2-----0-0-2-2-----0-0-2-2

Then heres the little rift (Can be done with Fingers 2 and 4 (provides longer notes) or 1, 3, and 4 (E string rings over the A string if not muted properly.)

Mute E string if you want

A-----4---5---4---2-0---0-2-0------
E-2-2--2---2---2------4--------4-0- Then repeat.

For a simple One-Finger riff, I would recomend trying placing your index (ring) finger or whatever finger you perfer on the 3rd and 4th strings and the 4th and 5th strings. Riffs are very easy and sound very good here.

And SOTW is acutally played on the G and D strings.
Last edited by EddieRhoads at Feb 25, 2008,
#11
e------------------------------------------------------------------------------
B------3-3-3-3---3-3-3-2-------------------------------------------------------
G-----4-4-4-4---2-2-2-2--------------------------------------------------------
D------------------------------------------------------------------------------
A------------------------------------------------------------------------------
E------------------------------------------------------------------------------

like a guitar sideways.. E being the 6th string (big) and e being the first(lil)

the numbers are the frets you need to press.

BINGO