#1
I was wondering if anyone could give me some idea what the heck that main riff is being played in the song Wet pussycat by unida or direct me to some sufficient tab ive checked the internet and theres one tab and im pretty sure its not correct. Heres them playing on Youtube thanks for the help.http://www.youtube.com/watch?v=aw4BSkGvesM
#4
Something like this:

|------------------------------------
|------------------------------------
|------------------------------------
|----0-0-3-0-3-0-0-3-0-3-0-3h5-5-
|------------------------------------
|------------------------------------

Play that a few times, then play this:


|-----------------------------------
|-----------------------------------
|------------------------------3p0-
|-0-0-3-0-3-0-0-3-0-3-0-3h5------
|-----------------------------------
|-----------------------------------


At some point there's a bit that goes something like this:


|-----------------
|-----------------
|--------3p0-3p0 x2
|----3h5---------
|-----------------
|-----------------


May not be perfect but it's something to go on.


Though I'm surprised you couldn't work that out in 6 years.
Last edited by derek8520 at Nov 17, 2014,