#1
alright i am a decent player and am gettin in to soloing and can solo pretty good. i want to find out what songs will benifits me as a musician. lately ive been focusing my attention on theory and scales but i would really aprreciate any thoughts

Again what are some songs that could benifit for me???

I play anthing from blues to blues rock to heavy metal and some alternative like audioslave or ratm but what ever cuz anything will help
#3
well im not sayin that im not good at them but i just want to make myself a better guitar player
#4
http://www.ultimate-guitar.com/lessons/correct_practice/warm_ups_lll.html

Try things you don't normally do like classical and jazz.

This particular piece from Jason Becker's Air helped me with finger style especially.


  H             H.              E  E   E  E   E  E     E  E  E  E  E  E   
-----------||----------------|------------1p--0-----|--0-----------------|
-----------||----------------|-----3h--5---------3--|--------------2--3--|
-----------||*---------------|--2-------------------|-----------2--------|
-----------||*---------------|--0-------------------|--------------------|
-----------||----------------|------------1---------|--0--1--3--0--------|
-----------||----------------|----------------------|--------------------|


  E  E  E  E  E  E     E  E  E  E  E   E     E  E  E  E  E  E   
--------------6--5--|--3-----------5--10--|--8--5--------------|
--5-----------------|-----------6---------|--------7--8--------|
-----7--6--7--------|---------------------|--------------------|
--------------------|---------------------|-----------------8--|
--4-----------------|-----------5---------|--------5--6--8-----|
-----------6--------|--3--5--6------------|--5-----------------|


  E  E  E  E  E  E     E  E  E  E  E  E     E  E  E  E  E  E  
--6--5--------------|-----------------5--|--6--5---------------
--------8--5--6--8--|-----5--6-----------|--------6--5--3------
--------------------|--7--------6--7-----|-----------------3--
--5--------5--------|--------------------|--3-----------------
--------------------|--------------------|-----------3---------
--------------------|--6--------5--------|---------------------


  E  E  E   E  E   E      E   E   E  E  E  E     E  E  E  E  E  E   
--------5--12---------|--13--10------6--------|--5--------3--------|
-----6----------------|----------10-----8--5--|-----6--3-----5--2--|
----------------------|-----------------------|--------------------|
--7---------7--8--11--|---0----------5--------|--3--------2--------|
--5-------------------|-----------------------|--------------------|
----------------------|-----------------------|--------------------|


  E  E  E  E  E  E     E  E  E  E  E  E     E  E  E  E  E  E   
-----------0--------|--1--3--5--3--5--6--|--5--------6--5-----|
--3-----------------|--------------------|-----------------6--|
-----------0--------|--------------------|--------2--3--2-----|
--3--2--3-----3--2--|--0--------2--------|--3--5-----------3--|
--------------------|--------------------|--------------------|
--------------------|--------------------|--------------------|


  E  E  E  E  E  E     E  E  E  E  E  E     E  E  E  E  E  E   
-----------1--3--5--|--4--5--7--5--------|-----------6--5-----|
--5-----------------|--------------------|-----------------6--|
--------------------|-----------------2--|--------------------|
--2--0-----0--------|--2--------3--5-----|--5--3--2--3--------|
--------4-----------|--------------------|--------------------|
--------------------|--------------------|--------------------|


  E  E  E  E  E  E     E  E  E  E  E  E     E  E  E  E  E  E   
--------------------|--------------------|--------------------|
--5--3-----6--3-----|--3--------2--------|-----------2--0--2--|
--------3--------2--|-----3--0-----2-----|--7-----------------|
-----------0--------|-----------------2--|-----6--0-----------|
--3-----------------|--1--------0--------|-----------0--------|
--------------------|--------------------|--4-----------------|


  E  E  E  E  E  E     E  E  E  E  E  E     E  E  E  E  E  E   
-----------2--------|--2--------3--2-----|--------------------|
--------------3-----|-----------------5--|--3-----------------|
--2--------------3--|--------------------|-----------6--9--6--|
--------2-----------|-----------2--------|--------------------|
--4--5-----1--------|--1--2--4-----------|--2--4--5-----------|
--------------------|--------------------|-----------6--------|


  E   E  E  E  E  E      E  E  E   E  E   E     E  E  E  S S S S S S  
------------9--6-----|--10--7-----12--9------|-----------------------|
------------------7--|---------7---------11--|-----------------------|
--7------------------|-----------------------|--9--6-----------------|
---------------------|-----------------------|--------8--------------|
---------9--9--------|---9-----9---9---------|-----------9-7-5-------|
--7--10--------------|-----------------------|--6-----9--6-----9-7-6-|


  E  E  E  E  E  E     E  E  E  E  E  E     T T T T E  E  Q.      
--------------------|--------------------|-----------------------|
--------------------|--------------------|-----------------------|
--7--------4--------|--4--------3--------|--------4--------------|
-----9--------5-----|-----3--------2-----|------4---4------------|
--------9--------7--|--------2--------4--|----5--------5---------|
--7--------3--------|--1--------2--------|--7-------------7------|


  Q.        S    S    S    S    S S    W                   W                 
------------------------------------|-------------------|-------------------|
-----------------------------<>14-L-|-------------------|-------------------|
-------------------<>16-------------|-------------------|-------------------|
--------------<>16------<>16--------|-------------------|-------------------|
---------<>17-----------------------|-------------------|-------------------|
--7---------------------------------|-------------------|-------------------|