#1
Here is the intro to Dethrone Tyranny by Gamma Ray. Many people do not have Guitar Pro, so i made a printable version, please add on if you want.

-------------------------------------------------------------------------------
Dethrone Tyranny - Gamma Ray
-------------------------------------------------------------------------------
Tabbed by: MaidenTallica
Email: traceriver@aol.com

Tuning: Drop D

Acoustic And Electric Both Use This Riff Listen to the Song for Help
e|------|--------------------------------------------------------------------|
B|------|--------------------------------------------------------------------|
G|------|--------------------------------------------------------------------|
D|------|-----8-----9-----8-----6-----8-----9--8--6----8---------------|
A|-----6|--6-----6-----6-----6-----6-----6------------------------------ |
D|------|--------------------------------------------------------------------|
(optional)x x x x x x x x
Palm Mutes
e|---------------------------------------------------------------------------|
B|---------------------------------------------------------------------------|
G|--------------------------------6-----------------------------------------|
D|--------8-----9-----8-----9--------9--8--6----8-----------------------|
A|-----6-----6-----6-----6-----6------------------------------------------|
D|---------------------------------------------------------------------------|
x x x x x x x
e|---------------------------------------------------------------------------|
B|---------------------------------------------------------------------------|
G|---------------------------------------------------------------------------|
D|-------8-----9-----8-----6-----8-----9--8--6--------------------------|
A|----6-----6-----6-----6-----6-----6------------------------------------ |
D|---------------------------------------------------------------------------|
x x x x x x x x
e|---------------------------------------------------------------------------|
B|---------------------------------------------------------------------------|
G|---------------------------------------------------------------------------|
D|----8-----6-----4-----3--------------------------------------------------|
A|-------9-----8-----6-----6-5--------------------------------------------|
D|---------------------------------------------------------------------------|

e|---------------------------------------------------------------------------|
B|---------------------------------------------------------------------------|
G|---------------------------------------------------------------------------|
D|----8-8--8-8--8-8--8-8-7--8-8-8----6-6-6---4-4-4----------------|
A|----6-6--6-6--6-6--6-6-5--6-6-6----4-4-4---2-2-2----------------|
D|---------------------------------------------------------------------------|

e|---------------------------------------------------------------------------|
B|---------------------------------------------------------------------------|
G|---------------------------------------------------------------------------|
D|----8-8-8----11-11-11--6-6-6----11-6-6-6-------------------------|
A|----6-6-6----9--9--9---4-4-4----9--4-4-4---------------------------|
D|---------------------------------------------------------------------------|

THAT IS ALL I HAVE SO FAR

| / slide up
| \ slide down
| h hammer-on
| p pull-off
| ~ vibrato
| + harmonic
| x Mute note
===============================================================================
Last edited by MaidenTallica at Feb 27, 2008,