#1
Look, im trying to play barraccuda, i know it, im playing it with my electric guitar, but, the fret, I know em, but I have one problem me and my friend are having, where do we strum? Listen to the song and figure out what strings to strum. Please, hansome reward for the seeker.
Avenged Sevenfold Fan, proud of it.
#4
the main riff.

it sounds like a horse galloping.

dun dundundun dundundun dundundun

that kinda pattern. Listen to the song, you'll get what I mean.

We're talking about the song by the band Heart, right?
#5
Depending on what feels better for you, you can either do


v = down stroke
^ = up stroke
E|---------------------------------|
B|---------------------------------|
G|---------------------------------|
D|---------------------------------|
A|-2---2-2-2---2-2-2---2-2-2---2-2-|
E|-0---0-0-0---0-0-0---0-0-0---0-0-|
    v  v ^ v   v ^ v   v ^ v   v ^


or


v = down stroke
^ = up stroke
E|---------------------------------|
B|---------------------------------|
G|---------------------------------|
D|---------------------------------|
A|-2---2-2-2---2-2-2---2-2-2---2-2-|
E|-0---0-0-0---0-0-0---0-0-0---0-0-|
    v  ^ v ^   v ^ v   ^ v ^   v ^


I'd find the first way easier to stay in time, but the second method easier on my wrist. They'll sound the same at the tempo of the song.
METAR KTIK 040043Z COR RMK TORNADO 1W MOV NE. EVACUATING STATION
#6
Ok, another question, um, you know how it has lines, uh, what's the bottom string in that tab, 1 or 6? please tell me its six!
Avenged Sevenfold Fan, proud of it.
#7
Yeah the bottom line is the 6th string. Think about if you're playing your guitar, and you rotate it about the neck 180 degrees towards yourself (so the fretboard is facing you.) When you do that, the lines on the tab match up with the strings on the guitar. May not be the best way, but that's how I visualize it.
METAR KTIK 040043Z COR RMK TORNADO 1W MOV NE. EVACUATING STATION
#8
Ok, another question, on the tab of barraccuda, it has 2 chords on top of each other
like...

-------------------------
-------------------------
-------------------------
-------------------------
A-----------------------
E-----------------------

What do I do there?
Avenged Sevenfold Fan, proud of it.
#9
You're new at this, aren't you?

Just messing. You're talking about the part where the 2 is on top of the 0? That just means that you play them at the same time.

Is that what you're talking about?
METAR KTIK 040043Z COR RMK TORNADO 1W MOV NE. EVACUATING STATION