#1
What is wrong with this tab?

I've had this tab rejected twice now, but because I never get any feedback I have no idea what it is i'm doing wrong...

-------------------------------------------------------------------------------
                     It Means Nothing - Stereophonics
-------------------------------------------------------------------------------

Tabbed By : Mark Spivey
e-mail: [email]spiveym_2001@yahoo.co.uk[/email]

Tuning: EADG

G|-------------------------------------------------|
D|-------------------------------------------------|
A|-12-12-12-12-12-12-12-12-12-12-14-12-14-12-12-12-|
E|-------------------------------------------------|

G|--------------------------------------------------------------------------------------------------------------------|
D|--------------------------------------------------------------------------------------------------------------------|
A|-12-12-12-12-12-12-12-12-12-12-14-12-14-12-12-12\5-5-5-5-5-5-5-5-5-5-5-5-5-5-5-5-5-5-5-5-5-5-5-5-5-5-5-5-5-5-5-5/12-|
E|--------------------------------------------------------------------------------------------------------------------|  

x4

G|-------------------------------------------------|
D|-------------------------------------------------|
A|-12-12-12-12-12-12-12-12-12-12-14-12-14-12-12-12-|
E|-------------------------------------------------|

G|-------------------------------------------------------------------------------------------------------------------|
D|-------------------------------------------------------------------------------------------------------------------|
A|-12-12-12-12-12-12-12-12-12-12-14-12-14-12-12-12\5-5-5-5-5-5-5-5-5-5-5-5-5-5-5-5-5-5-5-5-5-5-5-5-5-5-5-5-5-5-5-5/9-|
E|-------------------------------------------------------------------------------------------------------------------| 

G|-------------------------------------------------------------------------------------------------------------------------------------|
D|-9-9-9-9-9-9-9-9-9-9-9-9-9-9-9-9-9-9-9-9-9-9-9-9-9-9-9-9-9-9-9-9\5-5-5-5-5-5-5-5-5-5-5-5-5-5-5-5-5-5-5-5-5-5-5-5-5-5-5-5-5-5-5-5/12--|
A|-------------------------------------------------------------------------------------------------------------------------------------|
E|-------------------------------------------------------------------------------------------------------------------------------------|

x1

G|-------------------------------------------------|
D|-------------------------------------------------|
A|-12-12-12-12-12-12-12-12-12-12-14-12-14-12-12-12-|
E|-------------------------------------------------|

G|--------------------------------------------------------------------------------------------------------------------|
D|--------------------------------------------------------------------------------------------------------------------|
A|-12-12-12-12-12-12-12-12-12-12-14-12-14-12-12-12\5-5-5-5-5-5-5-5-5-5-5-5-5-5-5-5-5-5-5-5-5-5-5-5-5-5-5-5-5-5-5-5/12-|
E|--------------------------------------------------------------------------------------------------------------------|   

x2

G|-------------------------------------------------|
D|-------------------------------------------------|
A|-12-12-12-12-12-12-12-12-12-12-14-12-14-12-12-12-|
E|-------------------------------------------------|

G|-------------------------------------------------------------------------------------------------------------------|
D|-------------------------------------------------------------------------------------------------------------------|
A|-12-12-12-12-12-12-12-12-12-12-14-12-14-12-12-12\5-5-5-5-5-5-5-5-5-5-5-5-5-5-5-5-5-5-5-5-5-5-5-5-5-5-5-5-5-5-5-5/9-|
E|-------------------------------------------------------------------------------------------------------------------| 

G|--------------------------------------------------------------------------------------------------------------------------------------------|
D|-9-9-9-9-9-9-9-9-9-9-9-9-9-9-9-9-9-9-9-9-9-9-9-9-11-11-11-11-12-12-12-12\5-5-5-5-5-5-5-5-5-5-5-5-5-5-5-5-5-5-5-5-5-5-5-5-5-5-5-5-5-5-5-5/12-|
A|--------------------------------------------------------------------------------------------------------------------------------------------|
E|--------------------------------------------------------------------------------------------------------------------------------------------|

x1

G|-------------------------------------------------|
D|-------------------------------------------------|
A|-12-12-12-12-12-12-12-12-12-12-14-12-14-12-12-12-|
E|-------------------------------------------------|

G|--------------------------------------------------------------------------------------------------------------------|
D|--------------------------------------------------------------------------------------------------------------------|
A|-12-12-12-12-12-12-12-12-12-12-14-12-14-12-12-12\5-5-5-5-5-5-5-5-5-5-5-5-5-5-5-5-5-5-5-5-5-5-5-5-5-5-5-5-5-5-5-5/12-|
E|--------------------------------------------------------------------------------------------------------------------|

x1

G|-------------------------------------------------|
D|-------------------------------------------------|
A|-12-12-12-12-12-12-12-12-12-12-14-12-14-12-12-12-|
E|-------------------------------------------------|

G|-------------------------------------------------------------------------------------------------------------------|
D|-------------------------------------------------------------------------------------------------------------------|
A|-12-12-12-12-12-12-12-12-12-12-14-12-14-12-12-12\5-5-5-5-5-5-5-5-5-5-5-5-5-5-5-5-5-5-5-5-5-5-5-5-5-5-5-5-5-5-5-5/9-|
E|-------------------------------------------------------------------------------------------------------------------| 

G|--------------------------------------------------------------------------------------------------------------------------------------------|
D|-9-9-9-9-9-9-9-9-9-9-9-9-9-9-9-9-9-9-9-9-9-9-9-9-11-11-11-11-12-12-12-12\5-5-5-5-5-5-5-5-5-5-5-5-5-5-5-5-5-5-5-5-5-5-5-5-5-5-5-5-5-5-5-5/12-|
A|--------------------------------------------------------------------------------------------------------------------------------------------|
E|--------------------------------------------------------------------------------------------------------------------------------------------|

x1

G|-------------------------------------------------|
D|-------------------------------------------------|
A|-12-12-12-12-12-12-12-12-12-12-14-12-14-12-12-12-|
E|-------------------------------------------------|

G|--------------------------------------------------------------------------------------------------------------------|
D|--------------------------------------------------------------------------------------------------------------------|
A|-12-12-12-12-12-12-12-12-12-12-14-12-14-12-12-12\5-5-5-5-5-5-5-5-5-5-5-5-5-5-5-5-5-5-5-5-5-5-5-5-5-5-5-5-5-5-5-5/12-|
E|--------------------------------------------------------------------------------------------------------------------|  

x3

G|-------------------------------------------------|
D|-------------------------------------------------|
A|-12-12-12-12-12-12-12-12-12-12-14-12-14-12-12-12-|
E|-------------------------------------------------| Fade out.


| /  slide up
| \  slide down
| h  hammer-on
| p  pull-off
| ~  vibrato
| +  harmonic
| x  Mute note
===============================================================================

Do I need to break the bars down better so they are better rhythmically or what?
#2
Well if someone else has already posted it, it could be a reason....and it looks pretty simple, so if there is another version, then I'm guessing they wouldn't want double
#3
I just checked...there isn't a bass tab for this.......so.....I'm actually thinking "wtf?"

I don't know why you got rejected...
#4
Rejecting Tabs is a bad thing in my opinion.
I got told that my tabs were right - or at least sounded like that - by many and they still get rejected.
Why? I'd really love to know why they've gotten rejected..
That's what it needs in here. Reasons for rejecting. And a good one. If you can't play it, leave the tabs for someone else..

Sorry..

Back to the thread, I don't play bass myself, I just wanted to rant so the admins of the board could see that more than one person wanted reasons.

Good luck with your tabs - I don't play bass myself :x
#5
Quote by Green RATM Day
I just checked...there isn't a bass tab for this.......so.....I'm actually thinking "wtf?"

I don't know why you got rejected...

No there isn't one already, i'm assuming it's the format but i'm not sure what's wrong.
#6
Quote by Whorsy
Rejecting Tabs is a bad thing in my opinion.
I got told that my tabs were right - or at least sounded like that - by many and they still get rejected.
Why? I'd really love to know why they've gotten rejected..
That's what it needs in here. Reasons for rejecting. And a good one. If you can't play it, leave the tabs for someone else..

Sorry..

Back to the thread, I don't play bass myself, I just wanted to rant so the admins of the board could see that more than one person wanted reasons.

Good luck with your tabs - I don't play bass myself :x

Ya i completely agree....There might be 5 of the same tab...1 with 5 stars, the rest with like 3 or 2.....

Yet when I submit the same tab, which is the corrected version, and better than the 5 star tab....it gets rejected! WTF?