#1
I'm trying to put together a set of Motion City to play acoustically at an open mic night, and this song would fit perfectly, but I can't find a single tab anywhere. Can someone please help meh?
Exar Kun of the UG Jedi Order, PM tamargoguitar to join!!



I like you, but you're crazy. Oh look, a flying monkey....

I fart in your general direction. Now go away or I shall taunt you a second time.
#2
To get you going:

Down 1/2 Step

--------------------------------------
----------0----------------------0---
--- 13------13----------13--------- ...continue
14-------------- 14----------------
--------------------------------------
--------------------------------------

--------------------------------------
-------------0-----------------------0--
------11--------11-----------11------- ...continue
13---------------------13---------------
--------------------------------------
--------------------------------------

---------------------------------------------------
---------------------------------------------------
---------------------99999999--------------------
--77777777------99999999---99999999----
--77777777------77777777---99999999-----
--55555555----------------------77777777-----

---------------------------------------------------------
---------------------------------------------------------
---------------------------------------------------------
-2--------4--------7----------------------------------------
-2--------4--------7---------------------------------------
-0--------2--------5----------------------------------------
#3
the song is standard , down 1 fret

Intro:
e|-----------0--------------------------------------------------------------|
B|--------7----7---------------------------7------7-----------------------|
G|-------------------4 times------------------8---------4 times--------|
D|---9---------------------------------9-----------------------------------|repeat...
A|---------------------------------------------------------------------------|
E|---------------------------------------------------------------------------|
verse (power chords) : E B (3) A E B A E B
chorus (power chords): E F# A E F# A B (2) E


before going back to verse:
e|-----------------------0---------------------0--------------------------0-----|
B|-------------0-------------------0-----------------------0--------------------|
G|-----------------11-------------------11----------------------11----------------|
D|---------9-----------------9----------------------9---------------------------|
A|-----7---------------------------------------------------------------------|
E|---------------------------------------------------------------------------|

after the second chorus you may start doing full chords for the next part
chords:
E: 022100
Asus: x02200
F#m7(4): 244200

[E A F#m7(4) A E] (2)

next part is the intro riff with a different bass:
E Ab (4) A E B A E B

outro:
e|---------------------------------------------------------------------------|
B|---------------------------------------------------------------------------|
G|-------9999----11111111-----13131313------8888------9-------|
D|---------------------------------------------------------------------------|
A|-------7777---- 9 9 9 9-------11111111------6666-----7--------|
E|---------------------------------------------------------------------------|
outro chords:
E F# Ab B E: 022100 Abm#5: 466400
Last edited by crmrz at Jun 3, 2008,