#1
Hey everyone, I need a little help here.

Can anyone tell me how to play the C major scale in second position? I would REALLY appreciate it if someone can help me out.
Gear
Schecter C-1 Artist
Vox AD15VT
Epiphone EJ-200 Acoustic
#2
|---------------------|
|---------------------|
|---------------------|
|--------------2-4-5|
|------2-3-5--------|
|-3-5----------------|
Proud member of r0k 4 Chr15t club, PM T3hRav3n/christianbassis to join.

The Rig:
Dean Icon
Cimar strat-copy
Ibanez GRX-40
Dean Edge-1 Bass
Digitech RpX400
Peavey Rage 158


Creater of Tuba players united, pm to join.
#3
Quote by icon_player_5
|---------------------|
|---------------------|
|---------------------|
|--------------2-4-5|
|------2-3-5--------|
|-3-5----------------|



Thats G major...

Try this

|---------------------|
|---------------------|
|--------------2-4-5|
|------2-3-5--------|
|-3-5----------------|
|---------------------|

:P
Last edited by Ashbory4 at Feb 28, 2008,
#4
You can expand it to include all notes in that area of the neck, too:


e---------------------------------3-5---
B--------------------------3-5-6---------
G-------------------2-4-5----------------
D------------2-3-5-----------------------
A-----2-3-5------------------------------
E-3-5-----------------------------------