#1
Hey everyone hows it going? Well here is my problem -----> 10p9p7 i dont really undestand this can someone explain or post i diffrent way to do that i got confused to is 10p9 then p7 idk please help Thank you.

(5:15)
E-----10-----10------------------------------------------------------
B-12^----12^-------------------11------------------------------------
G----------------10p9p7----------------------------------------------
D------------------------9--8----------------------------------------
A--------------------------------------------------------------------
E--------------------------------------------------------------------

(5:20)
E-12^^--12^-12^-12^-12^-12^-12^-12^-12^-12-12p10----12-10------------
B------------------------------------------------12-------12---------
G--------------------------------------------------------------------
D--------------------------------------------------------------------
A--------------------------------------------------------------------
E--------------------------------------------------------------------
_______________
Gear.

Guitar: ESP F-50
Amp: Blazer 158 ***Transtube***
#3
Its just a normal puill off but with 3 notes. Play the 10, then pull off to the 9 and then again to the 7. Its 3 notes - 1 hit of the string.
#4
I dont get it at all i hit a 10 then pulloff on 9 then what do i do just pull of on 7 or do i hit 10 agian then pulloff on seven??????????? confused relly cofused explain it out
_______________
Gear.

Guitar: ESP F-50
Amp: Blazer 158 ***Transtube***