#1
Here are some riffs I made up in my spare time over the past few weeks. They're nothing fancy, but I like them.

e-|-------------------------|
B-|-------------------------|
G-|-------------------------|
D-|-0--8--0--7--0-2-3-2-0---|
A-|-0--8--0--7--0-2-3-2-0---|
D-|-0--8--0--7--0-2-3-2-0---|


e-|----------------------------------|
B-|----------------------------------|
G-|----------------------------------|
D-|-0--5-6-5-0--5-6-5-0--5-6-5-3-----|
A-|-0--5-6-5-0--5-6-5-0--5-6-5-3-----|
D-|-0--5-6-5-0--5-6-5-0--5-6-5-3-----|


e-|---------------------------|
B-|---------------------------|
G-|---------------------------|
D-|-0--1--4--3--7--6--2--3----|
A-|-0--1--4--3--7--6--2--3----|
D-|-0--1--4--3--7--6--2--3----|



~ = Let Ring

e-|-----------------------------------------------|
B-|-----------------------------------------------|
G-|-----------------------------------------------|
D-|-0-x-00-x-00-1--0-x-00-x-00-3--0-x-00-x-00-5---|
A-|-0-x-00-x-00-1--0-x-00-x-00-3--0-x-00-x-00-5---|
D-|-0-x-00-x-00-1--0-x-00-x-00-3--0-x-00-x-00-5---|

e-|------------------------------------------------------------------------|
B-|------------------------------------------------------------------------|
G-|------------------------------------------------------------------------|
D-|-0-x-00-x-00-1--0-x-00-x-00-3--0-x-00-x-00-6~~5~~3-5-0~~~~6~~5~~3-5-0~~~|
A-|-0-x-00-x-00-1--0-x-00-x-00-3--0-x-00-x-00-6~~5~~3-5-0~~~~6~~5~~3-5-0~~~|
D-|-0-x-00-x-00-1--0-x-00-x-00-3--0-x-00-x-00-6~~5~~3-5-0~~~~6~~5~~3-5-0~~~|


Just let me know what you guys think, and feel free to use these in your own songs. Doesn't matter to me. lol

Criticize them, and enjoy them. Especially the last one....I LOVE it.

-Matt
#3
They sound really cool the way I'm playing them. I like the fourth one alot. I'm not completely sure what you want the rhythms to be, but I like them.
Signature temporarily empty
#4
The way I tabbed them is for timing. So that should basically tell you how it goes.

I'll try and make a video maybe of it. If I knew how to use GP I would use it........
#5
to tell you the truth it kinda reminds me is Godsmack... dropped D single finger riffs? yeah.. but! they do sound good!
Les Paul Standard w/ Fernandes Sustainer System, and an EMG 81 bridge pickup, VOX AC100 head and Marshall1960 cab with celestion greenbacks, Crybaby wah, and a Zakk Wylde Overdrive. Sounds like God.