#2
uhh... take the chord (arpeggios are chords) find another chord that harmonizes with it, and either arpeggiate it and play that at the same time or move the arpeggio your playing up/down the neck (because its like a barre chord and that works that way lol)

no different than harmonizing anything else really... the synchronization is probably much more difficult.
Gear:

Jackson dk2m
MIM strat
peavey jsx 2x12 combo
Recording King RDC-26
Digitch RP1000
Crybaby 535Q
#6
Quote by trsc
Minor harmonizes with major two steps up.. vice versa


like an A minor chord would "harmonize" (spelling LOL) with an C major chord??
#8
Yes if you want to harmonize in minor thirds.


Am arp
|----------------8-----------------|
|------------10---------------------|
|---------9------------------------|
|-----10----------------------------|
|-12--------------------------------|
|---------------------------------|

harmonized (Cmaj)
|------------------12---------------|
|--------------13-------------------|
|----------12-----------------------|
|------14---------------------------|
|--15-------------------------------|
|---------------------------------|