#1
Comments, Ideas, or Improvements Plz Post. This is the rough version still finishing up da solo. It isnt that hard, but the rythms r what make it juicy
Sry this kinda hard to read, but im thinking about posting a vid w/ all the parts so u can kinda get the rythms by ear.
; )

Tempo: 135bpm

Key
pm: palm mute
/: slide
h or p: hammer-on & pull-off
x: mute fret
X# (ex. X8) repeat chord that many times
Q: Quarter Note
E: Eighth Note
S: Sixteenth Note

Lead Guitar:

Main Riff:
E E S S E E S S E E S S E E
E-------------------------------------------
B------------------------------------------- X2
G-------------------------------------------
D-4--4-x-x-12--12-x-x-7--7-x-x-9--9
A-4--4-x-x-12--12-x-x-7--7-x-x-9--9
E-2--2-x-x-10--10-x-x-5--5-x-x-7--7

Chorus
All Sixteenth Notes
E-------------------------------------------
B-------------------------------------------
G-4-------12--------7---------9----------
D-4x8----12x3-----7x3------9x8-------
A-2-------10--------5---------7----------
E-------------------------------------------

Bridge
E E E S EE E E E S SSS E
E---------------------------------------------
B---------------------------------------------
G---------------------------------------------
D-4----4-4--x--9/7---4----4-4--x--999-7
A-x-----x-x--x--x/x---x-----x-x--x--xxx-x
E-0h2-2--2-x--7/5--0h2--2-2--x--777-5

Rythm Guitar:
Main Riff
All Sixteenths
E-------------------------------------------
B------------------------------------------- X2
G--|pm|--|-----pm-----|---|pm|---------
D-4444--121212--777--9999----------
A-4444--121212--777--9999----------
E-2222--101010--555--7777----------

Chorus
All Sixteenths
E-------------------------------------------
B-------------------------------------------
G-4-------12--------7---------9----------
D-4x8----12x3-----7x3------9x8-------
A-2-------10--------5---------7----------
E-------------------------------------------

Bass Line:
E SSSSSSSSSSSS SSSSSSSS
G-----------------------------------------------
D-----------------222--------------------------
A-----------------------222--4444444--------
E-0h2-222222--------------------------------

E SSSSSSSSSSSSS SSSSSSSS
G-----------------------------------------------
D-----------------222--------------------------
A-----------------------000-22222222-------
E-0h2-222222--------------------------------

Ska Guitar Part

Ska Strumming
Quarter Notes
E--2--------10--------5--------7-----------
B--2--------10--------5--------7----------- X2
G--3-x2----11-x2-----6-x2---8--x2------
D--4--------12--------7--------9-----------
A---------------------------------------------
E---------------------------------------------

E--10-10---9---9----8-8----7-7-----------
B--10-10---10-10---8-8----8-8------- X2
G--11-11---11-11---9-9----9-9----------
D--12-12------------10-10----------------
A---------------------------------------------
E---------------------------------------------
#2
get guitar pro or something so we can hear it. I am too lazy to figure out how this goes to crit it
If I ever win the lottery, I will make a restaurant and call it "Thank you for calling, how may I help you" so when someone calls, I can say "Thank you for calling thank you for calling how may I help you how may I help you"
- Daniel Tosh