#1
ntro
e------------------------4--4-4-4-4-4-4-4-4-|
b-6-6-6-6-6-6-6-4-4-4-4---------------------|
g-------------------------------------------|
d------------------------3--3-3-3-3-3-3-3-3-|
a-4-4-4-4-4-4-4-3-3-3-3---------------------|
E-------------------------------------------|


e------------------------4--4-4-4-4-4-6-6-4-|
b-6-6-6-6-6-6-6-4-4-4-4---------------------|
g-------------------------------------------|
d------------------------3--3-3-3-3-3-3-3-3-|
a-4-4-4-4-4-4-4-3-3-3-3---------------------|
E-------------------------------------------|



am i supposed to play 6/4 and 4/3 at the same time and if so, how? if someone could break it into the simplest terms and tell me where my hands should be i'd really appreciate it.
#3
it's not a strumming song.

are these specific chords? i'm having trouble transitioning between the 3 parts and am thinking i'm probably not placing my fingers correctly.
#4
put your pinky on the 6 and pointer on 4
and pinch the strings with your thumb and pointer
----------------------------------------------------------------------------------------------------------------------------------------------
I like classical music so much, It gets played on my Dean RazorBack