M_16A
^^ i'm a gun
Join date: Jan 2008
418 IQ
#1
OK, In the second Ace Ventura Movie, there is some cool riffs that i can't quite get! can some one check it out?
"It's not about who has the biggest stick, it's about how hard you can swing it"
Naem
Registered User
Join date: Apr 2007
10 IQ
#2
First riff goes something like this, you can probably figure the rhythm sort of yourself
----------------------------------------------------------------------------------------------------------
-----------------------------------------------------------------------------------------------------------
------------------------------------------------------------------------------------------------------------
--------------------5-3----------3----3-5-5--------------------------5-3----5-3----3------------------
--5 5 5 ---5-5-5----------5-5----5--------------5-5-5-----5-5-5---------------5----5-3-5-5-5------
--------------------------------------------------------------------------------------------------------------


Second, I'm not 100% sure of this but it sounds ok
---------------------------------------------------------------------------------
------------------------6-----------------------------------------------------------
--7----5---7--7-- 7----7--twice --------------------------------------------------
----00--00------------------------------------------------------------------
---------------------------------------------------------------------------------
---------------------------------------------------------------------------------

Then you can end with something like this maybe

-----------------------------------------------------
----------------------------------------------------
----------------------------------------------------
---17-15-----15----------------------------------
-----------17-----17-15-17-17-17--------------
------------------------------------------------------

Remember to add pinch harmonics madly everywhere just like in the original song
Last edited by Naem at Dec 27, 2008,
Simsimius
Peace. Love. Solidarity.
Join date: Dec 2006
131 IQ
#3
Yeah, play this song Blevins!
Sunn O))):
Quote by Doppelgänger
You could always just sleep beside your refrigerator.

Guitar:
- Ibanez S670FM w/ JB
- Fender 'Lite Ash' Stratocaster
- Fender '72 Deluxe Telecaster
- Arbiter LP Jr. Doublecut
Amp:
- Laney VC15

'72 Tele Appreciation Group
RIP DIO
Last edited by Simsimius at Mar 25, 2013,