#1
Not sure if I should post this in the tabs section, but it isn't a request so I will post it here.

I dunno how to play this part of the song Asterisk, by Orange Range
e|----------------|----------------|----------------|----------------|------------------|
B|----------------|----------------|----------------|----------------|------------------|
G|--4>5--5--5----5|--5-5--5>7-7>5-5|>9-9---4>5--5--5|----2-2-2--2>---|12--12>-10-10>-9-9|
D|----------------|----------------|----------------|----------------|------------------|
A|--2>3--3--3----3|--3-3--3>5-5>3-3|>7-7---2>3--3--3|----3-3-3--3>---|10--10>--8--8>-7-7|
E|----------------|----------------|----------------|----------------|------------------|

e|----------------|----------------|----------------|----------------|------------------|
B|----------------|----------------|----------------|----------------|------------------|
G|--4>5--5--5----5|--5-5--5>7-7>5-5|>9-9---4>5--5--5|----2-2-2--2>---|------------------|
D|----------------|----------------|----------------|----------------|------------------|
A|--2>3--3--3----3|--3-3--3>5-5>3-3|>7-7---2>3--3--3|----3-3-3--3>---|------------------|
E|----------------|----------------|----------------|----------------|------------------| 


I'm a Bassist and I don't usually come across tabs like this....do I just mute the D string?
Quote by JDD331
A juggalo? Pokedex that ****.....what are they? like clowns...wannabes?


Epiphone Les Paul Standard
B-52 AT212
MXR-101 Phase 90
DeltaLab DD-1 Delay