#2
hey, ive got the high part tabbed out, the chords he tells you in the comments towards the bottom. (C#m, B, E, F#, (E, C# <-- only the bass note of the chord), A, (C#, F#,<-- only the bass note of the chord), B5)
Listen to the song for the correct timing

e|-4---4-4--4-4--5-4-------7--7--------------------2---4---5-4---4-0--|
B|---------------------------------------10-9---9---------------------------|
G|----------------------------------------------------------------------------|
D|----------------------------------------------------------------------------|
A|----------------------------------------------------------------------------|
E|----------------------------------------------------------------------------|

e|--0---2-0---------------2--2--2------2---------------------------------|
B|------------4----2----2--------------------5---4------------------------|
G|---------------------------------------------------------------------------|
D|---------------------------------------------------------------------------|
A|---------------------------------------------------------------------------|
E|---------------------------------------------------------------------------|