#1
« « «
-----------------------------------------------------------------------------
--------------14b~-------11b---11b~----rb11~-----11^12^11^14---15b~----------
-/11~--11-11-----------------------------------------------------------------
-----------------------------------------------------------------------------
-----------------------------------------------------------------------------
-----------------------------------------------------------------------------
first question is wat the hell do those arrows pointing left at the top mean?

and wat does it mean to brush up?

btw if it helps this is part of altitudes by jason becker
#2
i suggest lookin up the song for the wat this looks like because it turns oout like crap when u paste it on here
#3
               «          «     «
-----------------------------------------------------------------------------
--------------14b~-------11b---11b~----rb11~-----11^12^11^14---15b~----------
-/11~--11-11-----------------------------------------------------------------
-----------------------------------------------------------------------------
-----------------------------------------------------------------------------
-----------------------------------------------------------------------------


« means bend 1/2

11^12^11^14 means: 11-h-12-p-11-h-14

I wondered what kind of tab legend is this???

i suggest lookin up the song for the wat this looks like because it turns oout like crap when u paste it on here


I suggest you read this thread and it won't happen again,I swear.
Quote by zappp
emad I'm gonna ban you, seriously.