#3
Minor Scales fit in with Metal.

If you play A Minor, then A Major (I think it's right.). See which one sounds more fitting.


------------------------
------------------------
-------------------5-7--
-------------5-7-9------
-------5-7-8------------
-5-7-8------------------

------------------------
------------------------
-------------------6-7--
-------------6-7-9------
-------6-7-9------------
-5-7-9------------------
#4
Minor scales,pentatonics...
Current situation:
Proud owner of Jackson JS30RR and Roland Cube 30X
#5
hit random notes, if it doesnt fit bend it up a step, wide vibrato it, or legeto to the not above or below.
Jackson RR3 - BKP Painkiller/Warpig
Bugera 333XL 212
Pod Studio UX1
MXR Smart Gate
Hardwire CM-2
#6
^when ever i do that it dosent fit i can wip out thrash riffs but when i solo its like jimmy page which is cool for hard rock but it just dosent fit becuase I really base it off of the naturalminor which is kind of noobish but thats really what its closest to.
#7
whole tone and diminshed are also cool.

whole tone
--------------------------------------------------5--7--9-----------
------------------------------------------6--8----------------------
----------------------------------6--8------------------------------
----------------------5--7--9---------------------------------------
--------------6--8--------------------------------------------------
--5--7--9-----------------------------------------------------------

diminished

------------------------------------------------------------4--5--7------
-------------------------------------------------4--6--7-----------------
-------------------------------------4--5--7-----------------------------
-------------------------4--6--7-----------------------------------------
--------------5--6--8----------------------------------------------------
--5--7--8----------------------------------------------------------------