#1
My guitar teacher showed me the diatonic chords of major and he tabbed them out, but I'm not really sure how I should play them.

-x-----x-----x-----x------x--------
-5-----6-----8----10----10------
-5-----7-----9----10----10------
-5-----7-----9----10----10------
-3-----5-----7----8------8-------
-x-----x-----x-----x------x-------

Anyways, what is the correct fingering for these chords?

Thanks
Last edited by ttreat31 at Mar 7, 2008,
#2
1. Put your index finger on the 3rd fret of the A string, and barre your ring finger across the D, G and B strings at the 5th fret.

2. Index finger on the 5th fret of the A string, ring on the 7th fret of the D string, pinky on the 7th fret of the G string, and your middle finger on the 6th fret of the B string.

3. Same shape as above, but move it up the neck by 2 frets.

4. Same shape as the first chord, but moved up 5 frets.
#3
in the order you have them tabbed, i'll give you the fingerings
1 is index finger, 2 is middle finger, 3 is ring, 4 is pinky

-x-----x-----x-----x------x------
-3-----2-----2----3------3------
-3-----3-----3----3------3------
-3-----3-----3----3------3------
-1-----1-----1----1------1------
-x-----x-----x-----x------x------

any more questions lemme know