#1
Say that on guitar I was playing an E7 chord. The 4 notes in that chord are E-B-D-G#. What is an interesting Blues/Jazz way to play those notes on bass and what accidentals could I use to make it sound more interesting? (In 4/4)
#2
------------------------------------ g
-----------2--2---0-0-------------- d
--------------------------2-2------- a and repeat
--0-0------------------------------- e swing it


----------------------------------------------
------------------------------0-0-0-0---2--
----------------2-----2-----------------------
----0---0------------------------------------
Last edited by guitarhero49 at Mar 8, 2008,
#3
Hey, I just figured this out. This is something you can play over 4 bars of E7. I nice walk IMO. I is no bassist tho, but it should be fun.

--------------1----------|---------1----4-----------
---2----4---------3------|--2---------------3-------
-------------------------|---------------------------
-------------------------|---------------------------

----2----1---------------|---------------------------
---------------2----1----|----2-------------0----1-
-------------------------|---------2--2-------------
-------------------------|----------------------------
Gear:
Inflatable Guitar
Digitech GSP 2101/Mosvalve 962/Yamaha S412V
My Imagination