#1
Hey guys,
if anyones see the live verson of Cant stop, you know that in the verse, the main part where its 7 7 9 777 7 9, theres little bends and extra notes that john plays, and a lot of people play covers like that.
if anyone could figure out those little notes and bends it'd be greatly appreciated(:


can anyone also tab out his opening solo?
http://www.youtube.com/watch?v=5o9pakbzBUE


thanks a lot guys
the live way with all the extra stuff will sound a lotttt cooler
My Gear:
Fender American 60's Strat
Peavey Valveking Stack
Boss ME-50
Homebrew Crystal Bawl Wah
#2
the improvisation and use of ear in music is dead. it's all numbers.

edit- Oh sorry, can't help ya'.
all roads lead to rome
Last edited by Luppi at Mar 8, 2008,
#3
This is what I figured out and how I usually play it. It isn't exactly what he does but this is something a little different from the regular

and sorry for the ****ty tab, I don't usually tab things

It goes like this
http://www.youtube.com/watch?v=oNLfvmlrQek


E---------------------------
B--------------------8-8-7
G---7-9---------7---------
D--------------------------
A-7------7-7-7-----------
E---------------------------

E---------------------------
B--------------------8-8-7
G---7-9----------7-------
D-0------0-0-0-----------
A--------------------------
E--------------------------

E---------------------------------
B---------------------------------
G---7-9-----------7--9-----7-9
D--------------------------------
A---------------------------------
E-7-------7-7-7---------7------

E------------------------------
B------------------------------
G----7--9----------7-9-------
D----------9-------------9----
A------------------------------
E-8--------------8------------
Bada Bing


FIGHT LIKE A BRAVE


Shaga shaga woop woop...woot woot funkay funkay!
Last edited by Redman123 at Mar 8, 2008,