#1


DROP D TUNING
Intro:
Played clean (volume roll off) with around 330ms of delay

|--------------------------------------------------------------
|--------------------------------------------------------4-----
|--------5-------5-------6-------6-------3-------3-------------
|----3-------3-------3-------3-------3-------3-------3---------
|--------------------------------------------------------------
|--------------------------------------------------------------
 PM |-|     |-|     |-|     |-|     |-|     |-|     |-|


Palm muted riff - "*" means partially muted:
Played clean (volume roll off, not as severe as intro)

|-----------------------------------------------
|-----------------------------------------------
|-----------------------------------------------
|---------------13*-----------------------------
|-------------------------15------13------12----
|---0----10s12--------15------13------12-------- x 3
 PM|----------|      |----------------------|

|-----------------------------------------------
|-----------------------------------------------
|-----------------------------------------------
|---------------13------------------------------
|-------------------------15------13------12----
|---0----10s12--------15------13------12-------- (let off the palm mute slightly as you progress towards the end)


Main riff:
Played with distortion

|-----------------------------------------------
|--15---13---15--------18-18---------15---------
|--14---12---14--------17-17---------14---------
|--0----10---12---13---15-15--13-13--12---------
|--0----10---12--------15-15--13-13--12---------
|--0----10---12--------15-15--13-13--12--------- x 3
                           PM|-----|


Small bridge/fill portion:
Played clean (Volume roll off, as with the palm muted riff) with around 330ms of delay

|--------------------------------------------------------------
|--------------------------------------------------------------
|--------------------------------------------------------5-----
|--------7-------7-------8-------8-------5-------5-------------
|----5-------5-------5-------5-------5-------5-------5---------
|--------------------------------------------------------------
 PM |-|     |-|     |-|     |-|     |-|     |-|     |-|


Palm muted riff - "*" means partially muted:
Played clean (volume roll off, not as severe as intro)

|-----------------------------------------------
|-----------------------------------------------
|-----------------------------------------------
|---------------13*-----------------------------
|-------------------------15------13------12----
|---0----10s12--------15------13------12-------- x 3
 PM|----------|      |----------------------|

|-----------------------------------------------
|-----------------------------------------------
|-----------------------------------------------
|---------------13------------------------------
|-------------------------15------13------12----
|---0----10s12--------15------13------12--------


Main riff:
Played with distortion

|-----------------------------------------------
|--15---13---15--------18-18---------15---------
|--14---12---14--------17-17---------14---------
|--0----10---12---13---15-15--13-13--12---------
|--0----10---12--------15-15--13-13--12---------
|--0----10---12--------15-15--13-13--12--------- x 2
                           PM|-----|

|-----------------------------------------------
|--15---13---15--------18-18---------15---------
|--14---12---14--------17-17---------14---------
|--0----10---12---13---15-15--13-13--12---------
|--0----10---12--------15-15--13-13--12---------
|--0----10---12--------15-15--13-13--12---------


Fill:
Played with distortion and flange
Turn switch to rhythm pickup (volume at 0), turn the bridge pickup volume to 0. Strum the notes, switch to bridge
and turn volume up to 10 fairly slowly. Use the rhythm as a killswitch and do that for all 3 sets

|--------------------------------------------------------------
|--------------------------------------------------------------
|--------------------------------------------------------------
|---7---------9---------10-------------------------------------
|---5---------7---------8--------------------------------------
|---0---------0---------0--------------------------------------


Solo:
Played with distortion, its essentially the palm muted riff trem picked and with wah
"~" after note means trem pick
Start with open wah, close on 3rd open D, repeat, then for every other note, go close-open


|------------------------------------------------------------------
|------------------------------------------------------------------
|------------------------------------------------------------------
|------------------------------------------------------------------
|-----------------------------------------------12~~13~~15~~18b21~~
|--0---0-0---0---0-0~~~10~s~12~~~13~~~15~~~12~~~-------------------


Ending riff:
Played with distortion

|-----------------------------------------------
|--15-s-13-s-15--------18-18s-16-16s-15---------
|--14-s-12-s-14--------17-17s-15-15s-14---------
|--0----10-s-12---13---15-15s-13-13s-12---------
|--0----10-s-12--------15-15s-13-13s-12---------
|--0----10-s-12--------15-15s-13-13s-12--------- x 2


|-----------------------------------------------
|--15-s-13-s-15--------18-18s-16-16s-15---15----
|--14-s-12-s-14--------17-17s-15-15s-14---14----
|--0----10-s-12---13---15-15s-13-13s-12---0-----
|--0----10-s-12--------15-15s-13-13s-12---0-----
|--0----10-s-12--------15-15s-13-13s-12---0----- 



It's still going to need to be messed with more, and it screams for bass and drums, but thats the shell of the idea.
Last edited by BlueHorseDemon at Mar 8, 2008,
#2
may i reccomend
-guitar pro
-power tab

would make this a lot easier for you and the rest of us to know what yoru doing

but the riffs are cool [played them in drop c so it might be off]
Quote by metul kult
You know when Attack Attack is ripping off your music, you're onto something


twitter: @victorstaygold