#1
Yes im farly new at playing the guitar and I need to learn 2 songs.I would like some easy ones peferable rock or any thing realy.....If u would like to help me learn how to play the guitar I would happly be willing to learn just email me at mas0nj0rdan@hotmail.com but I am realy here for the 2 songs.....Thanks

mas0nj0rdan...!
#2
Smells like teen spirit - Nirvana
Basket Case - Greenday

there the ones most people choose

or dammit - blink 182

those kinda songs
#8
lol kinda.I am just wanting to learn hey i need some help if the note looks like this

|--------------------------------|
|--------------------------------|
|--------------------------------|
|(0)----(0)----(5)---(5)---(3)---| 1
|-0------0------3-----3-----1~~--|
|-0--0-0-0--0-0---0-0---0-0------|

do i play them togeather like the 0s were there on top of each others?
#9
Quote by mas0n j0rdan
lol kinda.I am just wanting to learn hey i need some help if the note looks like this

|--------------------------------|
|--------------------------------|
|--------------------------------|
|(0)----(0)----(5)---(5)---(3)---| 1
|-0------0------3-----3-----1~~--|
|-0--0-0-0--0-0---0-0---0-0------|

do i play them togeather like the 0s were there on top of each others?


yeah
#10
oh ok thanks....and the reson im so eager is if i learn 3 songs i get my own guitar i have learnt on but it was asy it was the national anthem and i no some of iron man and smoke on the water but my firend tought me thos the smoke on the water and iron man