#1
Well, i've got an interesting sounding song. BUT I NEED A SOLO!!

Here goes nothing;

The main chords of the song are:

--------------------------------------------------------------------------------
------------------------------------------------------------------------
-----------------------------------------------------------------------------
-2-2-x-x-x-x----------------------------------------------------------
-2-0-x-x-x-x-repeat once more---7-7--x-x-7~-------------------------
-0-0-x-x-x-x--------------------------4-4--x-x-5~---------------------

so basically in rhythm terms.

one and two e and 3 and 4 e and (First chord)

one and two e and~

ba ba chicka ba ba chicka chicka - ba ba chicka ba~

LOL, anyway. Excuse my stupidness but the rhythm is important

:P going for like an upbeat rock / hard rock feel.

Need a great solo to play while that is playing somewhat quietly in the background. Help me out ultimate-guitar!

Thanks,

Kevin

P.S. If you're going to put in tabs don't make it too hard please. I'm looking for advice like what pentatonic or tabs maybe?
#2
MY bad, first chord is E minor twice! Sorry bout that.

It should Go:

---------
------
-------
2-2--------
2-2-------
0-0-------
#3
write ur own! arse

'08 Ibanez S5470 Prestige
Gibson SG Special - discontinued teal finish
Mesa Boogie Triple Rectifier
4x12 Mesa Oversized Slanted Cab
BOSS TU-2
iSP Decimator
#4
---------1-2-34-2-423--1-37--5234-234-24-2-4-34-503-43-4-53-4-34-1-6-7-6-86-7-9-655-4-62-72-78


tap every note

by the way, its all on the A string
My Old Progressive Metal Band:
Acrasia
For fans of Between The Buried and Me, Dream Theater, Cynic.

My New Progressive Rock/Djent Band:
Wings Denied
For fans of Deftones, Tesseract, Periphery, Karnivool, Cynic.
#5
Quote by Ochazuke
ba ba chicka ba ba chicka chicka - ba ba chicka ba~
isn't that bulls on parade?
HADOUKEN!! Click For UG's Street Fighter Group

Quote by synpet713192

I'd never seen you around until very recently, but this and the other pic have caused me to worship you
#6
try using trills and stuff like this

-320--------------------------------
------543------------------5675h8
-----------5h7--------3h4---------

btw that is one of my solos but you can use it idc
#8
Quote by |<guitarhero>|
haha,i was gonna say that but i thought that everybody would just call me a queer


i dont think you are but for the fun of it im ganna say it anyways your queer
#9
Quote by |<guitarhero>|
haha,i was gonna say that but i thought that everybody would just call me a queer

LOLZ uz iz quEer
HADOUKEN!! Click For UG's Street Fighter Group

Quote by synpet713192

I'd never seen you around until very recently, but this and the other pic have caused me to worship you