#1
Electric six - Naked pictures bass tab

I searched for one and all i saw was the guitar, so hopefully this will help people. This is my first tab posted, so hope it goes well.

Standard tuning

Intro/verse/solo(theres no bass for a few seconds, u can just hear the slide)
After the first slide (11) dont play it, only for intro

G ----------------------------------------------------
D ---------------------------2*-2-------------------
A ------------1-2--------0---------2-3-4-4-3-2---
E-11/--4-4-------4-4------------------------------

Chorus

G----------------------------------------
D-----------------------------------------
A----------------5--4-4-4-4------------
E-4-4-4-4-4-----------------5-5-5-5--

Pre verse/outro (on the outro and the 4 at the end of the slide) (8)

G-------6-8-------6-6-6--8-8-8---------6-8-------6-6-6--8-8-8-----8-6----------
D-6-6--------6-6-------------------6-6--------6-6---------------------------8-6-----
A-------------------------------------------------------------------------------------8/--
E----------------------------------------------------------------------------------------

I hope i've tabbed it fairly right, any problems please email - Avenged_Sevenfol274@hotmail.co.uk