#1
can someone please tab a certain song for me? like, i want a couple done,and i sware i will do anything (almost) for them!!!
But i'm barely holding on. Where did i go wrong? Choking on the difference between me and the world.i am a poet. happy people dont write.
#2
Normally in this situation, one would calmly state the names of the songs he or she wished to be tabbed. Also, spelling and grammar is usually taken into account when requesting these songs. By posting in this manner, the most effective response can be achieved.

Would you like to elaborate on your previous post?
#3
um... **** the grammer. im a writer, we are allowed to suck at spelling and grammer in order to get out thoughts out faster, buddy. i would like "The Heavens" by the Raveonettes, and "Vexed", "The Word You Weild" by Say anything. seriously, i'll do almost anything!!! lol
But i'm barely holding on. Where did i go wrong? Choking on the difference between me and the world.i am a poet. happy people dont write.
#5
Vexed - Say Anything

I'm too lazy to tab both parts so here's the first one:


Gtr I (E A D G B E) - 'Untitled'

Riff I (Intro/Verse)
  E E E E E E E E   E E E E E E E E   E E E E E E E E   E E E E E E E E
|-----------------|-----------------|-----------------|-----------------|
|-----------------|-----------------|-----------------|-----------------|
|-----------------|-----------------|-----------------|-----------------|
|---------7-7-7-7-|-----7-7-6-6-----|---------7-7-7-7-|-----7-7-9-9-7-7-|
|-4-4S7-7-5-5-7-7-|-7-7-7-7-7-7-7---|-4-4S7-7-5-5-7-7-|-7-7-7-7-7-7-7-7-|
|-2-2S5-5---------|-5-5---------5-0-|-2-2S5-5---------|-5-5-------------|


Riff II (Chorus)
  Q  E E Q  E E   Q  E E Q  E E
|---------------|------------------|
|---------------|------------------|
|---------------|------------------|
|----7-7----7-7-|----4-4----2-2----|
|----7-7----7-7-|-4--4-4-2--2-2----|
|-5------4------|-2--2---0--0------|


Riff III ("You think you're jesus christ")
  E E Q  E E Q    E E Q  E E Q    E E Q  E E Q    E E  Q  H
|---------------|---------------|---------------|------------|
|---------------|---------------|---------------|------------|
|---------------|---------------|---------------|------------|
|-----7------7--|-----7--9-9-9--|-----7------7--|-7-7-11--9--|
|-----7--5-5-5--|-4-4-4--7-7-7--|-----7--5-5-5--|-4-4--9--7--|
|-5-5-5---------|---------------|-5-5-5---------|------------|


  E E Q  E E Q    E E Q  E E Q    E E Q  E E Q    Q  E E E E Q
|---------------|---------------|---------------|---------------|
|---------------|---------------|---------------|---------------|
|---------------|---------------|---------------|--------7-7-7--|
|-----4------4--|-----7------7--|-----4------4--|-7------7-7-7--|
|-----4------4--|-----7------7--|-----4------4--|-7------5-5-5--|
|-2-2-2--2-2-2--|-5-5-5--5-5-5--|-2-2-2--2-2-2--|-5----5--------|


now just piece those parts together and you have your song
#6
thanks, man
But i'm barely holding on. Where did i go wrong? Choking on the difference between me and the world.i am a poet. happy people dont write.