#1
This is what came out of 5 mins work. I would appreciate it if someone would want to help me finish or correct any of the riffs. they are not labeled and very rough, but as i said 5 mins work.


intro

D||--------------------------------
A||--------------------------------
F||--------------------------------
C||--------------------------------   x1
G||-2----5--4-------------------------
D||-0----3--2------------------------

Verse 1
D||--------------------------------
A||--------------------------------
F||--------------6------------------
C||--------------5------------------   x7
G||--5-6-5-6-----------------------
D||--3-4-3-4--x-------------------------

D||--------------------------------
A||--------------------------------
F||---------------6-6----------------
C||---------------5-5---------------- x1
G||-5-------------------------------
D||-3-0-0-0-0-0-0-------------------------

Break

D||-----------------------3---------
A||-----------------------3---------
F||------6----------------3----------
C||--8-6---9---8--9-8-6---3--------------
G||-----------------------3---------
D||-----------------------3---------
                          NH

Verse 2
D||--------------------------------
A||--------------------------------
F||-----10*---------------------------
C||---------12*------------------------
G||--------------------------------
D||-0-0----------6767---3--4-----------------


D||--------------------------------
A||--------------------------------
F||--------------------------------
C||--------------------------------
G||--------------------------------
D||--------------------------------


* = pinch and NH = natural harmonic

Thanks for any help anyone can give.
Last edited by Anooplol at Mar 17, 2008,
#2
Forgot to mention, there are videos of this song live with some shots of gunfaces hands, their not much but they helped me get what i got so far.