Page 4 of 129
#122
Quote by emad
The official website is:www.thebamboos.com
Post your tab here including song name and artist and let's see why


In other news, my tab for

His Girl
by The Budos Band
text

was also denied. Come on, now, I'm fairly certain I had the format correct. My only thought is that I included a few sentences in each one describing the track and how the tab should be used - as a beginning, not the end-all interpretation of the songs. Is this why they were both denied?

Can I have access to both contributions in order to correct them? Reconstructing them would be a real time consumer.
#123
^As you can see we don't have that artist in ug archive.Their official website is:http://thebudos.com/
Did you provide us with this link in your tab?

Can I have access to both contributions in order to correct them? Reconstructing them would be a real time consumer.


No!
But you should save a copy for each tab you're submitting.
And I said post your tab here till I personally check that out.
Quote by zappp
emad I'm gonna ban you, seriously.
#124
Yes, I included the link to each band's website. The formats were, as far as I can tell, more appropriate than many tabs that are accepted. I know that inaccuracy couldn't have been a factor. Since I can't recover them I probably won't re-do them for a long time, if ever. I would rather wash my hands of them for the time being.
#125

If you don't have a request,then let me be last post
Quote by zappp
emad I'm gonna ban you, seriously.
#126
I noticed my erase replace tab got a approved by at lest 3 people one of them including you and it still got rejected. Why is that?
#128
emad,
Here is the tab we spoke of over PM. Thanks for looking at it.
As stated, the intro/interlude/outro has been vastly improved and the chords corrected.

Arist: Jason Mraz
Title: A Beautiful Mess
Format: Txt

thanks again :-)
I intend on posting another Jason Mraz song in the
next few days that doesn't exist yet :-D
Attachments:
a beautiful mess.txt
#129
ps, this song is pending approval again, as I submitted it a second time as "(live)" before reading that it should not be done.

Sorry, and thanks.
#130
Hi, Im looking for tab, one tab of this song is already on UG but im looking for a different version, could some1 plz tab Wonderful Tonight by Eric Clapton "Live in Antigua?" Heres a Youtube link: http://www.youtube.com/watch?v=Yekz__cCci0&feature=related, its got a solo which i dont think has been tabbed, if it has plz give me link, but could some1 plz tab this whole song on guitar pro?? That would be greatly appreciated.
#131
Quote by tmustang80
ps, this song is pending approval again, as I submitted it a second time as "(live)" before reading that it should not be done.

Sorry, and thanks.

Hold on

Quote by gareehc
Hi, Im looking for tab, one tab of this song is already on UG but im looking for a different version, could some1 plz tab Wonderful Tonight by Eric Clapton "Live in Antigua?" Heres a Youtube link: http://www.youtube.com/watch?v=Yekz...feature=related, its got a solo which i dont think has been tabbed, if it has plz give me link, but could some1 plz tab this whole song on guitar pro?? That would be greatly appreciated.


Post in Tab Talk forum.

Quote by JSLee
I submitted my Tab (Coral: Simon Diamond) and it got accepted. The day it was accepted I noticed that some of the chords were out of line a little bit (I used the tab button on notepad instead of spaces, it looked alright at first but didnt turn out right on UG), so I updated it and the updated version got rejected, I didn't resubmit it I just updated it, why was my Tab rejected?


Do exactly what I'm telling ya:
Copy your tab from ug and paste it to notepad.Correct it.Do not use tab button instead of spaces.Then use update link for that.Copy and paste it in tablature section and do not use preview button,just push submit your tab.
When status of your tab is "W" Do not use "edit" link.Just leave it alone and be patient.Changes will be automatically saved on your previous tab.

Next!
Quote by zappp
emad I'm gonna ban you, seriously.
#132
^I can't understand what's wrong with it?
Here is your tab and looks pretty good to me.And it added to archive in April 14th, 2008.You sure it didn't updated?If so,post your tab here...
Quote by zappp
emad I'm gonna ban you, seriously.
#133
Quote by JSLee
I submitted my Tab (Coral: Simon Diamond) and it got accepted. The day it was accepted I noticed that some of the chords were out of line a little bit (I used the tab button on notepad instead of spaces, it looked alright at first but didnt turn out right on UG), so I updated it and the updated version got rejected, I didn't resubmit it I just updated it, why was my Tab rejected?

sems use updated your tab through the common tab submitting page. but you should go to http://my.ultimate-guitar.com/main.php?mode=contributions&showtab=2 and follow the link "u!" near the tab you want to edit.
Big Dyuha
#134
^He has done that before,Dyuha.I don't get what's wrong with that tab?
Quote by zappp
emad I'm gonna ban you, seriously.
#135
So, I re-submitted the Bamboos tab. I realized that those two submissions didn't have my name or email address - would that account for their rejection?
#136
Why was my tab denied a second time? Here it is, I don't know how to put it in a neat little window and I won't bother to correct the formatting here - it was correct in both submissions. What is the problem?

-------------------------------------------------------------------------------
The Bamboos Theme - The Bamboos
-------------------------------------------------------------------------------

Tabbed By : Douglass Blush
e-mail: cyanide2600@excite.com

This is a great tune for jamming - use this tab as a template, it will help your playing grow.

Tuning : Standard

G|--------------------------|
D|--8-10-8----------8-10----|
A|---------10-8-6-8---------|
E|--------------------------|

G|-----------------------------|
D|-----------------------------|
A|----------------6--6-6x6--8--|
E|--8--8-8x8--10---------------| x20

G|-------------------------|
D|-------------------------|
A|-------------------------|
E|--6---4---2----6-6-66-6--|

G|-----------------------------|
D|-----------------------------|
A|----------------6--6-6x6--8--|
E|--8--8-8x8--10---------------| x8

G|-----------------------------------------------------------------|
D|-----------------------------------------------------------------|
A|-------------------------3\-----1-1-3\----0-1-2-3\-----1-1-3\----|
E|--6---4---2----6-6-66-6------------------------------------------|

G|--------------------------|
D|--8-10-8----------8-10----|
A|---------10-8-6-8---------|
E|--------------------------|

G|-----------------------------|
D|-----------------------------|
A|----------------6--6-6x6--8--|
E|--8--8-8x8--10---------------| x24

G|--------------------------|
D|--8-10-8----------8-10----|
A|---------10-8-6-8---------|
E|--------------------------|

| / slide up
| \ slide down
| h hammer-on
| p pull-off
| ~ vibrato
| + harmonic
| x Mute note
===============================================================================
#137
-------------------------------------------------------------------------------
The Bamboos Theme - The Bamboos
-------------------------------------------------------------------------------

Tabbed By : Douglass Blush
e-mail: [email]cyanide2600@excite.com[/email]

This is a great tune for jamming - use this tab as a template, it will help your playing grow.

Tuning : Standard

G|--------------------------|
D|--8-10-8----------8-10----|
A|---------10-8-6-8---------|
E|--------------------------|

G|-----------------------------|
D|-----------------------------|
A|----------------6--6-6x6--8--|
E|--8--8-8x8--10---------------| x20

G|-------------------------|
D|-------------------------|
A|-------------------------|
E|--6---4---2----6-6-66-6--|

G|-----------------------------|
D|-----------------------------|
A|----------------6--6-6x6--8--|
E|--8--8-8x8--10---------------| x8

G|-----------------------------------------------------------------|
D|-----------------------------------------------------------------|
A|-------------------------3\-----1-1-3\----0-1-2-3\-----1-1-3\----|
E|--6---4---2----6-6-66-6------------------------------------------|

G|--------------------------|
D|--8-10-8----------8-10----|
A|---------10-8-6-8---------|
E|--------------------------|

G|-----------------------------|
D|-----------------------------|
A|----------------6--6-6x6--8--|
E|--8--8-8x8--10---------------| x24

G|--------------------------|
D|--8-10-8----------8-10----|
A|---------10-8-6-8---------|
E|--------------------------|

| / slide up
| \ slide down
| h hammer-on
| p pull-off
| ~ vibrato
| + harmonic
| x Mute note
================================================== =============================


1-Remove the line:This is a great song....
2-You forgot to provide us with the official website,see!
3-That would be great if you post a link to the song,I couldn't find that in their discography .
Quote by zappp
emad I'm gonna ban you, seriously.
#138
Actually, the submission had the website. Other people put explanations in their tabs - why am I not allowed to? Also, I think we're looking at different bands. The band I'm talking about is currently recording and touring - the album this is from is called Rawville. www.thebamboos.com
#139
^Put that url and album in your tab and resubmit it.
Quote by zappp
emad I'm gonna ban you, seriously.
#142
^Already replied to that
Edit:Next time post your request here,it's not because I'm bored,because I have bunch of pms and it's kinda difficult to reply all of them
Quote by zappp
emad I'm gonna ban you, seriously.
Last edited by emad at Apr 17, 2008,
#143
Quote by emad
^Already replied to that
Edit:Next time post your request here,it's not because I'm bored,because I have bunch of pms and it's kinda difficult to reply all of them


sorry sure thing. Was thinking...i didnt upload Come Alive as a GP4, it was a GP5... which could be why it was rejected....now twice...just a thought
Last edited by priceless_twirp at Apr 18, 2008,
#146
Quote by emad
^No,makes no different gp4 or 5.


ahh okay. was just a thought. Probably meerly the fact that there is one already then. But i assure u i have worked long and hard to get it better than that one. Anyway i resubmitted it. Fingers crossed
#147
Quote by aguacateojos
The Bamboos tab was denied again. This is absurd.


Your tab is restored:
http://www.ultimate-guitar.com/tabs/t/the_bamboos/the_bamboos_theme_btab.htm

Quote by priceless_twirp
ahh okay. was just a thought. Probably meerly the fact that there is one already then. But i assure u i have worked long and hard to get it better than that one. Anyway i resubmitted it. Fingers crossed


I told you:WAIT!!!
There was no need to submit your tab again.Your tab already restored:
http://www.ultimate-guitar.com/tabs/f/foo_fighters/come_alive_ver2_guitar_pro.htm


When you post here and I reply to you,just be patient.Resubmitting your tabs over and over again will not increase your chance to add your tabs to the archive.I try to answer everyone,just be patient,ok?

Next...
Quote by zappp
emad I'm gonna ban you, seriously.
#148
Quote by emad


I told you:WAIT!!!
There was no need to submit your tab again.Your tab already restored:
http://www.ultimate-guitar.com/tabs/f/foo_fighters/come_alive_ver2_guitar_pro.htm


When you post here and I reply to you,just be patient.Resubmitting your tabs over and over again will not increase your chance to add your tabs to the archive.I try to answer everyone,just be patient,ok?

Next...


Oh. Really sorry . I really don't know how all of it works so i just assumed i'd been unsucessfull. Could you maybe explain in a bit more detail what i'm supposed to be doing next time
#150
Can you guys tell me why this tab was rejected 2 times:

Standard Tuning

/ = slide up to higher note
\ = slide down to lower note


FIGURE 1
Guitar 1
e|-9-9---8-8\-|-6-6\-----4-|-9-9--8-8---6-|-8-8-8-8-8-8-8-8-|-9-9-9-9-9-9-9\-|
B|------------|------------|--------------|-----------------|----------------|
G|------------|------------|--------------|-----------------|----------------|
D|------------|------------|--------------|-----------------|----------------|
A|------------|------------|--------------|-----------------|----------------|
E|------------|------------|--------------|-----------------|----------------|
| Guitar 2
e|------------|------------|--------------|-----------------|----------------|
B|------------|------------|--------------|-----------------|----------------|
G|------------|------------|--------------|-----------------|----------------|
D|------------|------------|--------------|-----------------|----------------|
A|------------|------------|--------------|-----------------|----------------|
E|-9-9---8-8\-|-6-6\-----4-|-9-9--8-8---6-|-8-8-8-8-8-8-8-8-|-9-9-9-9-9-9-9\-|


FIGURE 2 -- repeat 2x
Guitar 1
e|-4--6-----4--------|-4--6-6---4--------|-4--6-6-/9--9--6-6-4---|-6---------------|
B|-------------6-----|-------------6-----|-----------------------|-----------------|
G|-------------------|-------------------|-----------------------|-----------------|
D|-------------------|-------------------|-----------------------|-----------------|
A|-------------------|-------------------|-----------------------|-----------------|
E|-------------------|-------------------|-----------------------|-----------------|
|
| Guitar 2 | 1st ending
e|-------------------|-------------------|-----------------------|-----------------|
B|-------------------|-------------------|-----------------------|-----------------|
G|-------------------|-------------------|-----------------------|-----------------|
D|-------------------|-------------------|-----------------------|-----------------|
A|-------------------|-------------------|-----------------------|-----------------|
E|-4--6-6---4--1-1-1-|-4--6-6---4--1-1-1-|-4--6-6-/9--9--6-6-4-4-|-6-6-6-6-6-6-6---|
|
| 2nd ending
|-6-6-6-6-6-6-6-6-|


FIGURE 3
Guitar 1
e|-----------------|-----------------|
B|-6-6-6-6-6-5-4-3-|-6-6-6-6-6-5-4-3-|
G|-----------------|-----------------|
D|-----------------|-----------------|
A|-----------------|-----------------|
E|-----------------|-----------------|
| Guitar 2
e|-----------------|-----------------|
B|-----------------|-----------------|
G|-----------------|-----------------|
D|-----------------|-----------------|
A|-----------------|-----------------|
E|-6-6-6-6-6-6-6-6-|-6-6-6-6-6-6-6-6-|

Guitar 1
e|-5---------------|-----------------|-----------------|
B|-----------------|-----------------|-----------------|
G|-----------------|-3---------------|-3---------------|
D|-----------------|-----------------|-----------------|
A|-----------------|-----------------|-----------------|
E|-----------------|-----------------|-----------------|
| Guitar 2
e|-----------------|-----------------|-----------------|
B|-----------------|-----------------|-----------------|
G|-----------------|-----------------|-----------------|
D|-----------------|-----------------|-----------------|
A|-----------------|-----------------|-----------------|
E|-6-6-6-6-6-6-6-6-|-6-6-6-6-6-6-6-6-|-6-6-6-6-6-6-4---|


** Repeat all 3 Figures from the top, then:
** Repeat FIGURE 1, then:


FIGURE 4
Guitar 1
e|---------------------| |-4-4-4-6-6-6-6-6--4------|
B|---------------------| |-------------------------|
G|---------------------| |-------------------------|
D|---------------------| x7 |-------------------------|
A|---------------------| |-------------------------|
E|---------------------| |-------------------------|
| Guitar 2
e|---------------------| |-------------------------|
B|---------------------| |-------------------------|
G|---------------------| |-------------------------|
D|-11-11-10--7-8-7-8-7-| x7 |-6-6-6-8-8-8-8-8--6----3-|
A|---------------------| |-------------------------|
E|---------------------| |-------------------------|

Guitar 1
e|-5---------------|-----------------|
B|-----------------|-----------------|
G|-----------------|-----------------|
D|-----------------|-----------------|
A|-----------------|-----------------|
E|-----------------|-----------------|
| Guitar 2
e|-----------------|-----------------|
B|-----------------|-----------------|
G|-----------------|-----------------|
D|-----------------|-----------------|
A|-----------------|-----------------|
E|-6-6-6-6-6-6-6-6-|-6-6-6-6-6-6-6-6-|


FIGURE 3-extended
Guitar 1
e|-----------------|-----------------|
B|-6-6-6-6-6-5-4-3-|-6-6-6-6-6-5-4-3-|
G|-----------------|-----------------|
D|-----------------|-----------------|
A|-----------------|-----------------|
E|-----------------|-----------------|
| Guitar 2
e|-----------------|-----------------|
B|-----------------|-----------------|
G|-----------------|-----------------|
D|-----------------|-----------------|
A|-----------------|-----------------|
E|-6-6-6-6-6-6-6-6-|-6-6-6-6-6-6-6-6-|

Guitar 1
e|-5---------------|-----------------|-----------------|---------------|
B|-----------------|-----------------|-----------------|---------------|
G|-----------------|-3---------------|-3---------------|-3-------------|
D|-----------------|-----------------|-----------------|---------------|
A|-----------------|-----------------|-----------------|---------------|
E|-----------------|-----------------|-----------------|---------------|
| Guitar 2
e|-----------------|-----------------|-----------------|---------------|
B|-----------------|-----------------|-----------------|---------------|
G|-----------------|-----------------|-----------------|---------------|
D|-----------------|-----------------|-----------------|---------------|
A|-----------------|-----------------|-----------------|---------------|
E|-6-6-6-6-6-6-6-6-|-6-6-6-6-6-6-6-6-|-6-6-6-6-6-6-6-6-|-6-6-6-6-6-4---|


FIGURE 1-variation
Guitar 1
e|-9-----8---|-6-------| |-8-8-8-8-8-8-8-8-|-9-9-9-9-9-9-9-9-|-9-9-9-9-9-9-9-9-|
B|-----------|---------| |-----------------|-----------------|-----------------|
G|-----------|---------| |-----------------|-----------------|-----------------|
D|-----------|---------| x3 |-----------------|-----------------|-----------------|
A|-----------|---------| |-----------------|-----------------|-----------------|
E|-----------|---------| |-----------------|-----------------|-----------------|
| Guitar 2
e|-----------|---------| |-----------------|-----------------|-----------------|
B|-----------|---------| |-----------------|-----------------|-----------------|
G|-----------|---------| |-----------------|-----------------|-----------------|
D|-----------|---------| x3 |-----------------|-----------------|-----------------|
A|-----------|---------| |-----------------|-----------------|-----------------|
E|-9-----8---|-6-------| |-8-8-8-8-8-8-8-8-|-9-9-9-9-9-9-9-9-|-9-9-9-9-9-9-9-9-|


FIGURE 5
Only Guitar 2
e|--------------------------|-------------------------|
B|--------------------------|-------------------------|
G|--------------------------|-------------------------|
D|-11-11-11-11--11-11-13-11-|-11-11-11-11--11-11-10-8-| x5
A|--------------------------|-------------------------|
E|--------------------------|-------------------------|

e|-------------------------|-------------------------|
B|-------------------------|-------------------------|
G|-------------------------|-------------------------|
D|-11-11-11-11--11-11-10-8-|-11-11-11-11--11-11-10-8-|
A|-------------------------|-------------------------|
E|-------------------------|-------------------------|


FIGURE 1-outro variation
Guitar 1
e|-9-9--8-8--|-6-6-------|-8---9--//////////-|-18------|
B|-----------|-----------|-------------------|---------|
G|-----------|-----------|-------------------|---------|
D|-----------|-----------|-------------------|---------|
A|-----------|-----------|-------------------|---------|
E|-----------|-----------|-------------------|---------|
| Guitar 2
e|-----------|-----------|-------------------|---------|
B|-----------|-----------|-------------------|---------|
G|-----------|-----------|-------------------|---------|
D|-----------|-----------|-------------------|---------|
A|-----------|-----------|-------------------|---------|
E|-9-9--8-8--|-6-6-////--|-8---9--//////////-|-18------|

THE END!
Last edited by Goad at Apr 22, 2008,
#151
Okay, that doesn't looks so great. Just copy it into Microsoft Word to see it as it should be.
#152
Quote by Goad
Can you guys tell me why this tab was rejected 2 times:


Could you just read the main post in this thread?

I said:
Song name
Artist
Quote by zappp
emad I'm gonna ban you, seriously.
#153
this isnt about tabs...but how long does it take for lessons to be processed? Thought asking here would be a good place to go first
#155
OK my tab got rejected for the brand spankin new Disturbed song Inside the fire. Im an idiot, and didnt save it, but I tabbed it out again and submitted the following. This would be the 3rd version of this song. Its different then the others, Its accurate(more accurate imo) and as far as i know follows the correct format. obviously its not going to look good on the forums, but all the notes are in the right place on my submission(i saved it on notepad :P). should i take out the phrase "sweet ass lick"(not referring to licking ass)?


Most accurate tab out there for this song, I promise, I spent a lot of time on it, and this is my first tab so be nice. The other tab posted is close, but it misses a lot. The palm muting system i using is "+" for palm mutes "-" for releasing the palm mutes.

Tabbed by: tdopz
Email: Lokelda@hotmail.com
Tuning: Drop C (C G C F A D)

Intro:

D|-------------------------|
A|-------------------------|
F|-------------------------|
C|--7\----7777-----77------|
G|--7\----7777-----77------|
C|--7\----7777-----77------|


For the keyboard part I just use a wah and play.

G|--0-0-12-0-0--000-0-1-0|


Main Riff
x2
D|---------------------------------------------------------------|
A|---------------------------------------------------------------|
F|---------------------------------------------------------------|
C|---------------------------------------------------------------|
G|3-0-0-0-0-8-0-0-7-0-0-0-0-3-0-0-3-0-0-0-0-8-0-0-7-0-0-3-0-1-0-1|
C|---------------------------------------------------------------|


Verse
x2
D|----------------------------------------------------------------|
A|----------------------------------------------------------------|
F|----------------------------------------------------------------|
C|----------------------------------------------------------------|
G|-3-0-0-0-0-8-0-0-7-0-0-0-0-3-0-0-3-0-0-0-0-8-0-0-7-0-0-3-0-1-0-1|
C|----------------------------------------------------------------|
PM - + + + + - + + - + + + + - + + - + + + + - + + - + + - - - - -

Then play Main Riff x2

Pre-chorus bridge

D|-------------------------------------------------------------------|
A|-------------------------------------------------------------------|
F|-------------------------------------------------------------------|
C|-----------------------------------------------------------x-x-x-x-|
G|-----------------------------------------------------------x-x-x-x-|
C|-333-000-555-222-333-000-555-222-333-000-555-222-333-000-5-x-x-x-x-|

Chorus
x2
D|-------------------------------------------------------------------------|
A|-------------------------------------------------------------------------|
F|------12-------10------12------------------12-------10-999999999---------|
C|-7-7--12-10-12-10-7-7--12-10-12-10h12-7-7--12-10-12-10-999999999-5555555-|
G|-7-7--10-10-12-8--7-7--10-10-12-10h12-7-7--10-10-12-8--777777777-5555555-|
C|-7-7-----10-12----7-7-----10-12-10h12-7-7-----10-12--------------5555555-|

Main Riff x2
Verse x2
Main Riff x2
Chorus x2

Bridge to solo

Guitar 1
D|-----------------------------------------|
A|-----------------------------------------|
F|2222---------99-88-4444----------3-------|
C|2222---------99-88-4444----------3-333---|
G|0000---------77-66-2222----------1-333---|
C|-----------------------------------333---|

Guitar 2
D|-----------------------------------------|
A|-----------------------------------------|
F|2222-222-2---------4444-4/5-3-3-33-------|
C|2222-222-2---22-11-4444-4/5-3-3-33-333---|
G|0000-000-0---22-11-2222-2/3-1-1-11-333---|
C|---------2-0-22-11-----------------333---|

Solo
Guitar 1
D|------------------------------------------------------------------|
A|------------------------------------------------------------------|
F|-8\7b8-7p5-5h7-4-4h5-3-3*----------555-444------555-444-555-7777*-|
C|----------7----------------555-777--------55-77-------------------|
G|------------------------------------------------------------------|
C|------------------------------------------------------------------|
*=pinch harmonic

Guitar 1
tremolo picking
D|-8-00000-7-00000-3-00000-5-00000-8-000-7-000-----|
A|-------------------------------------------------|
F|-------------------------------------------------|
C|-------------------------------------------------|
G|-------------------------------------------------|

Guitar 1
tremolo picking
D|-3-00000-5-00000-3-000-8-000-7-000-10-000-10-000-|
A|-------------------------------------------------|
F|-------------------------------------------------|
C|-------------------------------------------------|
G|-------------------------------------------------|
C|-------------------------------------------------|

Guitar 1
D|-10-8-0000-10-8-00--12p8h10p8---12p8h10p8----12p8h10p8----12p8h10------15-----15-----15-----15/20|
A|-----------------------------10----------10------------10---------15b17--15b17--15b17--15b17-----|
F|-------------------------------------------------------------------------------------------------|
C|-------------------------------------------------------------------------------------------------|
G|-------------------------------------------------------------------------------------------------|
C|-------------------------------------------------------------------------------------------------|

Guitar 2
x2
D|-----------------------------------------------------------------------------|
A|-----------------------------------------------------------------------------|
F|-2222-2-2-2---------4444-4/5-3-3-33------2222-2-2-2---------4444-444-7-77777-|
C|-2222-2-2-2---22-11-4444-4/5-3-3-33-333--2222-2-2-2---22-11-4444-444-7-77777-|
G|-0000-0-0-0---22-11-2222-2/3-1-1-11-333--0000-0-0-0---22-11-2222-222-5-55555-|
C|----------2-0-22-11-----------------333-----------2-0-22-11------------------|

Sweet lick

D|-----------------------------------------------------------------------------------|
A|-----------------------------------------------------------------------------------|
F|----------------------------------------------------------------------11--11-14-11-|
C|-------------10-------------------10-------------------10--10-13-10-13--13---------|
G|13-12-0-10-12--12-10-12-13-0-10-12--12-10-13-12-0-10-12--12------------------------|
C|-----------------------------------------------------------------------------------|

D|-----------------------------------------------------------------------------------|
A|-----------------------------------------------------------------------------------|
F|----------------------------------------------------------------------11--11-------|
C|-------------10-------------------10-------------------10--10-13-10-13--13--13-10--|
G|13-12-0-10-12--12-10-12-13-0-10-12--12-10-13-12-0-10-12--12------------------------|
C|-----------------------------------------------------------------------------------|

D|-----------------------------------------------------------------------------------|
A|-----------------------------------------------------------------------------------|
F|----------------------------------------------------------------------11--11-14-11-|
C|-------------10-------------------10-------------------10--10-13-10-13--13---------|
G|13-12-0-10-12--12-10-12-13-0-10-12--12-10-13-12-0-10-12--12------------------------|
C|-----------------------------------------------------------------------------------|

D|--------------------------------------------------------------|
A|--------------------------------------------------------------|
F|--------------------------------------------------------------|
C|-------------10-------------------10-------------------10--10-|
G|13-12-0-10-12--12-10-12-13-0-10-12--12-10-13-12-0-10-12--12---|
C|--------------------------------------------------------------|

Sweet ass lick
D|---------------------------------------14--14-17-14-17/20-20-20---|
A|------------------------13--13-16-13-16--16-----------------------|
F|---------11--11-14-11-14--14--------------------------------------|
C|-13-10-13--13-----------------------------------------------------|
G|------------------------------------------------------------------|
C|------------------------------------------------------------------|

Chorus x2
Main riff x4

End with

D|--|
A|--|
F|2-|
C|2-|
G|0-|
C|--|


PS - thinking that maybe you guys thought my tab was too similar to another tab for this song, while its not shown here, i added in my tab submission a harmony in the 'sweet ass lick' part. yet another guitar 2 part that hasnt been tabbed before.
Last edited by tdopz at Apr 24, 2008,
#156
^Let's see;
1-Your intro is wrong.I played that and the intro is like:

---------------------------|---------------------------|
---------------------------|---------------------------|
---------------------------|---------------------------|
---------------------------|---------------------------|
------------------8--------|--7------------------------|
--10--7--7--7--7-----7--7--|-----7--7--10--7--7--8--7--|



But you posted it like:

Main Riff
x2
D|---------------------------------------------------------------|
A|---------------------------------------------------------------|
F|---------------------------------------------------------------|
C|---------------------------------------------------------------|
G|3-0-0-0-0-8-0-0-7-0-0-0-0-3-0-0-3-0-0-0-0-8-0-0-7-0-0-3-0-1-0-1|
C|---------------------------------------------------------------|



It's obviously wrong and you called it main riff and then again you named it verse!!!

2-End of pre chorus in your tab is:

D|-------------------------------------------------------------------|
A|-------------------------------------------------------------------|
F|-------------------------------------------------------------------|
C|-----------------------------------------------------------x-x-x-x-|
G|-----------------------------------------------------------x-x-x-x-|
C|-333-000-555-222-333-000-555-222-333-000-555-222-333-000-5-x-x-x-x-|


But it should be like:

D|----------------------------------------------------|-----------|
A|----------------------------------------------------|-----------|
F|----------------------------------------------------|-----------|
C|----------------------------------------------------|--x-x-x-x--|
G|----------------------------------------------------|--x-x-x-x--|
C|--3-3-3-0-0-0-5-5-5-2-2-2-3-3-3-0-0-0-5-5-5-2-2-2---|--x-x-x-x--|


(Taken from current version)

3-You tab is kinda erratic.Use our template for your tab.

4-Remove "sweet lick"and "sweet ass lick" from your tab.There's no such a part in songs like those words!!!

5-Add tab legends at the end of your tab

6-After all changes post your tab here and code it and it will be aligned well,like I did.
Quote by zappp
emad I'm gonna ban you, seriously.
#157
i dont see how your version is correct. besides the notes that, well, lets just say we disagree on. theres two phrases of that riff. each phrase being 2 measures, and the guitar is playing 16th notes, which means there should be 32 notes in there. unless of course you were just making the point that i should separate my measures? youve got me confused, listen to the song again closely, i think youll find im right. but im not going to go ahead and change everything else you mentioned if my tabs going to get denied because we have a difference of opinion on how its played, i thought that was the whole point of having different versions?

i mean really, look at that other tab posted, half the comments are people more or less saying 'ehhh its a good start, but not entirely accurate' or 'part x sounds funny to me'. and i was one of them, so i set out to write my own, more accurate tab. and not for nothing have you looked at version 2?
#158
Quote by tdopz
i dont see how your version is correct. besides the notes that, well, lets just say we disagree on. theres two phrases of that riff. each phrase being 2 measures, and the guitar is playing 16th notes, which means there should be 32 notes in there. unless of course you were just making the point that i should separate my measures? youve got me confused, listen to the song again closely, i think youll find im right.


You're completely wrong about this part;

In each bars we have 4 beats and 8 notes for guitar track,alright?
Then it means 16 notes along the main intro riff.Listen to the song here:

http://www.youtube.com/watch?v=6gXhZXtMxu4

I attached 4 intro bars to my post.Unzip it and listen to it.It's a midi file.You can judge it yourself

but im not going to go ahead and change everything else you mentioned if my tabs going to get denied because we have a difference of opinion on how its played, i thought that was the whole point of having different versions?


Nice point,BUT we're trying to add correct tabs to the archive,aren't we?If you're gonna contribute to ug that would be great and we'll thank you.If you're not gonna change your tab,at least play the intro and see which one is correct.

If you're not gonna share your tab with us,that would be alright as well

Edit:However your tab is already approved,but watch the comments and rating,maybe I'm wrong.
Attachments:
Inside the fire.zip
Quote by zappp
emad I'm gonna ban you, seriously.
Last edited by emad at Apr 25, 2008,
#159
yeah i noticed that as well, it doesnt come up in a search i noticed, but if youre looking at version 1 or 2, you can see a 3rd one as an option. and i wasnt saying im a stubborn jerk and wont change my tab, i just wasnt gonna do it if we couldnt resolve this intro debate and it prevented my tab from getting accepted. simply put, theres no point making changes if its not gonna get accepted anyways, right? thats all i was saying.

anyways i really must put my foot down on this intro(as nicely as possible, of course). im counting a complete total of 4 bars for the intro/main riff before the verse(where the vocals kick in). it repeats itself once, so thats where im getting the two phrases part. so one phrase is 2 bars, the guitar is playing 16th notes so theres 16 notes per bar. if you count every guitar picking as such(1 e + a) i think youll know what im getting at. actually here ill attach a recording of me playing it on my acoustic followed by the actual song. here.

intro
#160
Ok,
Your link does not work.If you missed something to post here,just mention me in pm.
Right now you don't have a rejected tab.

Next!
Quote by zappp
emad I'm gonna ban you, seriously.