#2

#----------------------------------PLEASE NOTE---------------------------------#
#This file is the author's own work and represents their interpretation of the #
#song. You may only use this file for private study, scholarship, or research. #
#------------------------------------------------------------------------------##

JOWLES
As recorded by Buckethead
(From the 1999 Album MONSTERS AND ROBOTS)

Transcribed by Pray4Chicken

Gtr I (E A D G B E) - 'Untitled'

4/4
Gtr I
PM| PM----| PM PM| PM----| PM
E E Q S S S S S S E E E Q S S S S S S E 7x
||-----------------------|-----------------------||
||o----------------------|----------------------o||
||-----------------------|-----------------------||
||-----------------------|-----------------------||
||o-----1----------1---1-|-----1----------1---1-o||
||--0-0----0-0-0-0---0---|-0-0----0-0-0-0---0----||


e e e e e e e e e e e e e e e e
||-------------------------------------------------------||
||-------------------------------------------------------||
||-------10-----------10-----------10-----------10-------||
||----9------9-----9------9-----9------9-----9------9----||
||-9------------9------------9------------9--------------||
||-------------------------------------------------------||


PM| PM----| PM PM| PM----| PM
E E Q S S S S S S E E E Q S S S S S S E 4x
||--------------------------------------------||
||o------------------------------------------o||
||--------------------------------------------||
||--------------------------------------------||
||o-----1---------1---1-----1---------1---1--o||
||--0-0---0-0-0-0---0---0-0---0-0-0-0---0-----||


T T T T
T T T T T T T T T T T T Q T T T T T T T T T T T T T Q
||--15p14p13p12p11p10\-9/-10h11h12h13h15-16----15p14p13p12p11p10\-9/-10h11h12h13h14h15-16-----||
||o------------------------------------------------------------------------------------------o||
||--------------------------------------------------------------------------------------------||
||--------------------------------------------------------------------------------------------||
||o------------------------------------------------------------------------------------------o||
||--------------------------------------------------------------------------------------------||


PM-| PM-------| PM
E E Q S S S S S S E 8x
||-----------------------------------||
||o---------------------------------o||
||-----------------------------------||
||-----------------------------------||
||o-------1--------------1-----1----o||
||--0--0-----0--0--0--0-----0--------||


PM-| PM-------| PM
E E Q S S S S S S E 4x
||-----------------------------------||
||o---------------------------------o||
||-----------------------------------||
||-----------------------------------||
||o-------4--------------4-----4----o||
||--3--3-----3--3--3--3-----3--------||


PM----------------------|
Q T q T q T q T E Q Q q 8x
||---------------------------------||
||o-------------------------------o||
||---------------------------------||
||---------------------------------||
||o-------------------------------o||
||--0---1---5---3---0----2--h3-----||


Duration Legend
---------------
W - whole; H - half; Q - quarter; E - 8th; S - 16th; T - 32nd; X - 64th; a - acciaccatura
+ - note tied to previous; . - note dotted; .. - note double dotted
Uncapitalized letters represent notes that are staccato (1/2 duration)
Irregular groupings are notated above the duration line
Duration letters will always appear directly above the note/fret number it represents the
duration for. Duration letters with no fret number below them represent rests. Multi-
bar rests are notated in the form Wxn, where n is the number of bars to rest for. Low
melody durations appear below the staff

Tablature Legend
----------------
h - hammer-on
p - pull-off
b - bend
pb - pre-bend
r - bend release (if no number after the r, then release immediately)
/\ - slide into or out of (from/to "nowhere")
s - legato slide
S - shift slide
<n> - natural harmonic
[n] - artificial harmonic
n(n) - tapped harmonic
~ - vibrato
tr - trill
T - tap
TP - trem. picking
PM - palm muting
\n/ - tremolo bar dip; n = amount to dip
\n - tremolo bar down
n/ - tremolo bar up
/n\ - tremolo bar inverted dip
= - hold bend; also acts as connecting device for hammers/pulls
<> - volume swell (louder/softer)
x - on rhythm slash represents muted slash
o - on rhythm slash represents single note slash

Misc Legend
-----------
| - bar
|| - double bar
||o - repeat start
o|| - repeat end
*| - double bar (ending)
: - bar (freetime)
$ - Segno
& - Coda
Tempo markers - <E/E./Q/Q./H/H.> = BPM(8/16=s8/s16), where s8 = swing 8ths, s16 = swing 16ths


***************************************************************************************
* Generated using Power Tab Editor by Brad Larsen - http://powertab.guitarnetw
ADD

Check out my self-recorded demos on my profile!!! C4C

Separation is an illusion.