#2
If you dont have GuitarPro you can try a 15 day free trial version and learn it.
#4
X9
----------------------------|----------------|-----------------------------------
----------------------------|----------------|-----------------------------------
----------------------------|---------2---2--|-----------------------------------
------------------------12\-|--4---4---------|--2---2--0--0----------------------


---------------------------|---------------------------------|----------------------------
---------------------------|--------6---6---6---------6----|--4----4----4------4--------
----7--7---7--------7--- |---------------------6--------6-|---------------4------4-----
----------------7-------7-|---------------------------------|----------------------------

---------------------------|-------------------------|----------------------------
---6---6----6---------6--|-------------------------|----6----6----6-------6-----
------------------6------6|---7---7---7-------7-- |-------------------6----6---
---------------------------|---------------7------7-|----------------------------

---------------------|---------------------------|--------------------------------
-4----4----4-----4-|---4------4------4----4-|----4---------------------------
---------------------|---------------------------|--------------------------------
---------------------|---------------------------|--------------------------------

----------------------------|-------------------------|-----------------------|------
----------------------------|-------------------------|-----------------------|------
---------------2-----2-----|-------------------------|--------------2---2---|------
---4-----4-----------------|----2----2-----0----0--|-----4---4------------|---2--


X7
--------------------------------------------|-----------------------------------------
--------------------------------------------|-----------------------------------------
------------------------------2------2-----|-----------------------------------------
-----------------4----4--------------------|----2-----2------0-------0---------------

---------------------------|---------------------------------|----------------------------
---------------------------|--------6---6---6---------6----|--4----4----4------4--------
----7--7---7--------7----|---------------------6---------|---------------4------4-----
----------------7-------7-|---------------------------------|----------------------------

---------------------------|-------------------------|----------------------------
---6---6----6---------6--|-------------------------|----6----6----6-------6-----
------------------6------6|---7---7---7-------7---|-------------------6----6---
---------------------------|---------------7------7--|----------------------------

---------------------|---------------------------|--------------------------------
-4----4----4-----4-|---4------4------4----4-|----4---------------------------
---------------------|---------------------------|--------------------------------
---------------------|---------------------------|--------------------------------


X3
---------------------------------------|------------------------------------------
---------------------------------------|------------------------------------------
------------------------------2---2---|------------------------------------------
-----------------4---4----------------|----2----2----0----0----------------------

--------------------------|-------------------------------------------------------
--------------------------|-------------------------------------------------------
--------------------------|-------------------------------------------------------
---4-----4------2-----2-|------2------------------------------------------------


X2
---------------------------|---------------------------------|----------------------------
---------------------------|--------6---6---6---------6----|--4----4----4------4--------
----7--7---7--------7----|---------------------6--------6--|---------------4------4-----
----------------7-------7--|---------------------------------|----------------------------

---------------------------|-------------------------|----------------------------
---6---6----6---------6--|-------------------------|----6----6----6-------6-----
------------------6------6-|---7---7---7-------7--|-------------------6----6---
---------------------------|---------------7------7--|----------------------------

--------------------|----------------------------|--------------------------------
-4----4----4--4---|----4------4------4---4--|----4---------------------------
--------------------|----------------------------|--------------------------------
--------------------|----------------------------|--------------------------------


X5
--------------------------------------------|-----------------------------------------
--------------------------------------------|-----------------------------------------
------------------------------2------2-----|-----------------------------------------
-----------------4----4--------------------|----2-----2------0-------0--------------

I also submitted it, but its pending.
Nighty Night keep your butthole tight
Quote by AlexiSinergy
I heard my mom talking to her friend about going to a ****ing dildo party!
Last edited by Sw00t at Mar 24, 2008,
#6
Your welcome.

Sorry if its not laid out so good, this was my first tab ever.
Nighty Night keep your butthole tight
Quote by AlexiSinergy
I heard my mom talking to her friend about going to a ****ing dildo party!