#1
Anyone know Japanese? How'd you learn? I'm very interested in learning.
HEY
Do you like anime/manga?
PM me about buying the graphic novels I'm trying to sell
#4
I took three years in high school and learned pretty much nothing.

Good luck.
HEEEEEEEEYYYYYYY YOUUUU GUYYYYYYSSSS
#5
Fly to Japan and get lessons from the all knowing god Marty Friedman. And at the same time, take guitar lessons from him too! You can really kill two birds one stone, I tell ya.
#7
Quote by Someone18
Fry to Japan and get ressons from the arr knowing god Marty Friedman. And at the same time, take guitar ressons from him too! You can rearry kirr two birds one stone, I terr ya.

This is how you speak Japanese. It's rearry simpre, actuarry.
#8
Quote by Dirge Humani
This is how you speak Japanese. It's rearry simpre, actuarry.



well... I actually take japanese at my school and I concur... and thank you for using Rs intstead of L... but thats not even close. I suggest getting a tutor to help you because there are 3 forms of writing and the sounds are generally phenetic but they sometimes through you off by adding a small charcter in.
Quote by bpoeoanry
go back to sleep
Waking up with boobs? Is there a visine for that.
#9
Quote by InvaderTSN
Here's how you say hello.

*ahem*

Hurro!



this person is your best shot as your teacher
Maybe in order to understand mankind, we have to look at the word itself: "Mankind". Basically, it's made up of two separate words - "mank" and "ind". What do these words mean ? It's a mystery, and that's why mankind is.

http://groups.ultimate-guitar.com/map /
#10
Quote by jagstang365
this person is your best shot as your teacher


I'm actually taking Japanese at my school right now lol.
#11
Quote by killedbyaspork
well... I actually take japanese at my school and I concur... and thank you for using Rs intstead of L... but thats not even close. I suggest getting a tutor to help you because there are 3 forms of writing and the sounds are generally phenetic but they sometimes through you off by adding a small charcter in.

You rearry need to rearn to recognize a joke when you see one.

And I do know that there is some truth in this 'R'/'L' thing, because the Japanese Arphabet/s have no rear distinction between the two.
#12
DARE OTOUSAN DESU KA?

Riddle me that
HEEEEEEEEYYYYYYY YOUUUU GUYYYYYYSSSS
#13
lol well...

Ichy
Knee
Sun
She
Go!
Rock!u
Shït-she
Hatchie
Cue
Dew

now you can count to ten...

no thanks necessary
This water's dark and coldGod's not where you hopedThis moment come and goneIt's time we all moved on
#18
"i can't berieve i have a ****in' Chechan telling me when i'll take a derivery!"?

i know Kim Jong Il isn't japanese, but this came to mind...
This water's dark and coldGod's not where you hopedThis moment come and goneIt's time we all moved on
#19
Quote by InvaderTSN
I'm actually taking Japanese at my school right now lol.


i just thought it was funny, i lol'd
Maybe in order to understand mankind, we have to look at the word itself: "Mankind". Basically, it's made up of two separate words - "mank" and "ind". What do these words mean ? It's a mystery, and that's why mankind is.

http://groups.ultimate-guitar.com/map /
#21
There is no relationship between Chinese characters and their pronunciation. I am just assuming Japanese is the same, so I think it would be very hard. Eastern Asian languages are probably the hardest out there for a Westerner, maybe even more so than Baltic ones. The tonal system is totally ridiculous. If you plan on learning Japanese, you need an instructional guide thing with some audio. You are going to need someone to help you pronounce the words correctly, just written instructions is too vague for those types of languages.
#22
Quote by aaron6890
i think im learning japanese, i think im learning japanese, i really think so!


E--15-15-15-15-13-13-10-10-13---15-15-15-15-13-13-10-10-13------
B--15-15-15-15-13-13-10-10-13---15-15-15-15-13-13-10-10-13------
#24
Quote by Dirge Humani
ROR wut?


...





Team America d00d!


and ROR at ROR Wut...

*giggles incessantly*

we is funneh ROR




This water's dark and coldGod's not where you hopedThis moment come and goneIt's time we all moved on
#25
Quote by InvaderTSN
E--15-15-15-15-13-13-10-10-13---15-15-15-15-13-13-10-10-13------
B--15-15-15-15-13-13-10-10-13---15-15-15-15-13-13-10-10-13------

E --------------------------------------------------------
B --12-12--------13-12------------------------------------------
G --12-12--------------1214-14---------------------------------
D --12-12--12-12--------14-14-----12-13-14----------------
A --10-10------------------14-14--14---------------------------
E ---------------------------12-12-------------------------------
#26
Quote by aaron6890
E --------------------------------------------------------
B --12-12--------13-12------------------------------------------
G --12-12--------------1214-14---------------------------------
D --12-12--12-12--------14-14-----12-13-14----------------
A --10-10------------------14-14--14---------------------------
E ---------------------------12-12-------------------------------


A--0--2--3--0-2--3--0-2--3----------0-------0----3--2--|
E---------------------------------1--3-----1-3-----3--------|