#1
I wasn't sure where to put it, but I think it belongs here. Anyway, I'm learning the Fade to Black main solo and was wondering what fingers to use + how to play this part near the start of the solo:

 |----/--7---------/-7---------/-7---------/---|
|---/-----10^7---/----10^7---/----10^7---/--7-|
|-9/-----------9/----------9/----------9/-----|
|---------------------------------------------|
|---------------------------------------------|
|---------------------------------------------|

         Full       Full        Full        Full
    p      )   p      )    p      )    p      )
|---------/----------/-7---------/-7---------/-7-|
|-10^7---/-7-10^7---/----10^7---/----10^7---/----|
|------9/---------9/----------9/----------9/-----|
|------------------------------------------------|
|------------------------------------------------|
|------------------------------------------------|

    p         p    p         p    p
|-10^7----7-10^7-10^7----7-10^7-10^7----7-|
|------10-------------10-------------10---|
|-----------------------------------------|
|-----------------------------------------|
|-----------------------------------------|
|-----------------------------------------|

    p         p    p         p    p
|-10^7----7-10^7-10^7----7-10^7-10^7----7-|
|------10-------------10-------------10---|
|-----------------------------------------|
|-----------------------------------------|
|-----------------------------------------|
|-----------------------------------------| 


Any help is greatly appreciated.

Thanks, Michal.
#2
I would bend the 9 with my ring finger and then play the 10-7 pull of with my pinky. Alternatively, bend with the middle and pull off with the ring.
#3
Thats the only part of the solo that i seem to have trouble with. I still can't play it at full speed but the way I try to play it is bend with my middle finger then hit the E7 with my index, pull off with my ring on the B10.
#4
personally...i just dont bend. it sounds a little off, but not too bad. close enough for me, anyway.

as for the fingers i use, i hit the high 7 with my index, 10 with my ring, pull off back to the index, then hit the 9 with my middle.
#5
I fret the 7 with my index, pull off with my ring finger and bend with the middle. for the second part, I keep my index on the 7 and play both the 10s with my ring finger.
Xbox Live tag: Dream Away Rain
Add!

Quote by marko'd
dont sweat how quick your progressing, i heard that Jimi hendrix didnt get his legendary guitar skills until he was dead


Quote by Dreadnought
+ MOTHERFUCKIN' 1