Page 1 of 2
#1
Whats your favourite scale on a guitar?
2 Xmas's ago=Yamaha RGX 121Z

Last Xmas=ESP LTD EX50

Next Xmas=???
#2
Just a normal minor scale. I don't really go into the whole modes thing.
VENUSIAN
FB SC BC TW
Patterns In The Ivy present ethnicity on an intriguing and dedicated level. ~Ambient Exotica
A mesmeric melange of yearning voice, delicate piano and carefully chosen samples. ~Lost Voices
#7
A Phrygian Dominant

'Full of Eastern Promise'
Quote by Vindication
sorry, but were you born a dumbass or did your mom n' dad take turns bashing your head with cinderblocks?

Quote by Gemini
You know that if you image search "pitbulls humping", all that comes up is a myspace a guy made for their dog?

I didn't actually..
#8
Harmonic Minor. though i havent practiced much with them, somewhat hard to use em right now.
Aeolian. Best and easiest scale for me.
#10
Natural Minor
Quote by ElMaco
My last pay check was £0 working 0 hours. I can't believe how easy it was
#12
im loving the harmonic minor atm
MAIN GUITARS:
PRS Single Cut Trem
Ibanez PGM-301
Rickenbacker 650D
Jackson RR5
Taylor 12 String acoustic
Yamaha RBX 5string bass
MAIN AMP:
Hughes And Kettner Trilogy w/ 4x12 HnK cab
#13
Harmonic Minor's my new favourite, though I like the Lydian and Dorian modes, they're fun to play.
#15
F-spanish gypsy scale.


|------2--1------------------------------------------------
|------------4--2--1---------------------------------------
|---------------------3--2---------------------------------
|---------------------------4--3--1------------------------
|------------------------------------4--3--1--0------------
|------------------------------------------------2--1------

|------------------------------------------------1--2------
|---------------------------------------1--2--4------------
|---------------------------------2--3---------------------
|------------------------1--3--4---------------------------
|------------0--1--3--4------------------------------------
|------1--2------------------------------------------------

#16
atm im using A minor for a new riff,...and then sometimes ill just go nuts and start moving PC's up and down chromatically
take it down with a SteamHammer
#20
Dorian (diatonic scale)
"Even though I've found God, I still love blow jobs, and I still say fuck." - Dave Mustaine

You know, when you, like, you grab a woman's breast and it's... and you feel it and... it feels like a bag of sand when you're touching it.
#23
The ever-simple B major, because it gives off that stupid hick twang. I'm not a big scale dude, so I'm not completely sure if that is even the right one.
#24
harmonic minor and diminished scales. and chromatic


Current Rig:
Ltd EC1000 deluxe
Ltd FX260
Peavey Valveking 112
Shure Super 55
Shure Pg 58
Behringer Kx1200
#25
Phrygian... and of course:


e|---------------------------------5-8---
B|----------------------------5-8--------
G|--------------------5-7-8-------------
D|---------------5-7---------------------
A|-------5-6-7---------------------------
E|--5-8----------------------------------
May the Force be with You.
Carmel is hawt
#26
A minor Pentatonic and G minor Pentatonic. With a little A Dorian mixed in there for fun.
BACK LIKE A HEART ATTACK
#28
Hirajoshi.

Marty Friedman FTW!
Quote by david9d5
You, my friend, win in epic proportions




Quote by sharpshootr55


Man... now I gotta clean my laptop screen.




Quote by ozzyismetal
^That has too much win for me to handle....
I think I need a glass of water and a nap.


#29
Major Mixolydien is my faveorite because it can get really fun, and the tones never sound repetative.
I'm Just a Box in a Cage
I'm Just a Box in a Cage
I'm Just a Box in a Cage
I'm Just a Box in a Cage
#30

|------------------------1-3-|
|------------------1-3-4-----|
|------------0-2-3-----------|
|------0-1-3-----------------|
|-1-3------------------------|
|----------------------------|


Bb Major


|---------------------1-3-|
|---------------1-3-4-----|
|---------0-1-3-----------|
|---0-1-3-----------------|
|-3-----------------------|
|-------------------------|


C Minor
#31
Quote by timi_hendrix
The SCALE OF EVIL.


Bravo for the Bill Bailey reference.
Hey Meg.
Proud of you.
#33
harmonic minor
no one in perticular
i like the sound of it no matter where it is on the fretboard
#34
Hirajoshi
E||------------------------------------------------17-18---|
B||---------------------------------------15-17-18---------|
G||---------------------------------14-15------------------|
D||------------------------12-14-15------------------------|
A||------------------12-13---------------------------------|
E||--10--------12-13---------------------------------------|


Diminished
 
-------------------------------------------------10-|
-----------------------------------------9-10-12----|
---------------------------------8-10-11------------|
-------------------------9-10-12--------------------|
-----------------9-11-12----------------------------|
--10-------11-13------------------------------------|


Neapolitan Minor
--------------------------------------------10-|
--------------------------------------11-14----|
-----------------------------10-12-14----------|
--------------------11-12-13-------------------|
-----------10-12-13----------------------------|
--10-11-13-------------------------------------|
#39
what?????? kinda like what is your favourite tooth or when the olympics is on do you prefer watching the 5000m or the 10000m.


what a fu£kin question.....

personally i am fond of the N melodic minor scale.
Page 1 of 2