#1
Can anyone tab the solo out from the newer version of this classic megadeth song?

I know a few bits as its in the original solo which there are tabs for but Im missing a huge amount of it still. Would really appreciate it!

#2
...

       ~~~~       ~~~~~~~
   a   +Q    S  S  E  +Q    S  S  E
|-----------17----16-(16)--17----17b19==|
|-14--(14)-----14-------------14--------|
|---------------------------------------|
|---------------------------------------|
|---------------------------------------|
|---------------------------------------|
|
| Gtrs II, III
|       W
|---------------------------------------|
|---------------------------------------|
|---------------------------------------|
|---------------------------------------|
|-------4-------------------------------|
|-------2-------------------------------|


  E5
    ~~~~~
   +Q.     E     +Q        +E    a   S  S
|-(17)r---16b17r(16)b17===(16)r(16)----16-|
|-----------------------------------17----|
|-----------------------------------------|
|-----------------------------------------|
|-----------------------------------------|
|-----------------------------------------|
|
|   W
|-----------------------------------------|
|-----------------------------------------|
|-----------------------------------------|
|-----------------------------------------|
|---2-------------------------------------|
|---0-------------------------------------|


     B5                     F#5    G5                      A5          G5
                   ~~                                                ~
   a  Q     E   E  Q   +E    E      S  S  S  S  S  S  S  S  S S  S S Q
|--------------------------------|---------------------------------------|
|-17s15---/19-\14-14--(14)\------|----17-------15-------14------12-------|
|---------------------------(6)/-|-14----14s13----13s11----11s9----9-7---|
|--------------------------------|---------------------------------------|
|--------------------------------|---------------------------------------|
|--------------------------------|---------------------------------------|
|
|     H.               +E    E      Q           E     E     Q        E E
|--------------------------------|---------------------------------------|
|--------------------------------|---------------------------------------|
|--------------------------------|---------------------------------------|
|-----4----------------(4)-------|---------------------------------------|
|-----2----------------(2)---4---|--5-----------x-----5-----7--------x-5-|
|----------------------------2---|--3-----------x-----3-----5--------x-3-|


  F#5
                   ~~~~~~~~~~~~~
  S  S S S S  S a  E  +Q    +S  E S
|-----------------------------------|
|-7h10---7--------------------------|
|------9---9s11---------------------|
|---------------9s11-(11)--(11)-9s7-|
|-----------------------------------|
|-----------------------------------|
|
| W
|-----------------------------------|
|-----------------------------------|
|-----------------------------------|
|-----------------------------------|
|-4---------------------------------|
|-2---------------------------------|


  E5                         B5                         F#5
               ~~~~~~                           ~~      PM|
  E  S S +S  S E +E. S E E   S  S S S +S  S S S Q.      S S
|--------------------------|--------------------------------|
|--------------------------|--------------------------------|
|--------------------------|----------------4s6-4-------2-4-|
|-9s11---------------------|--------4-(4)-4-----------------|
|------9-(9)-7s9-(9)-7-7-4-|-5--5-5-------------------------|
|--------------------------|--------------------------------|
|
| W                          H.                     +E  E
|--------------------------|--------------------------------|
|--------------------------|--------------------------------|
|--------------------------|--------------------------------|
|--------------------------|-4----------------------(4)-----|
|-2------------------------|-2----------------------(2)-4---|
|-0------------------------|----------------------------2---|


  G5                A5          G5     F#5
         ~~~~~~~PM|           ~                   ~~~~~~~~~~
  S T T  E  +E  S S T T S S S E +E       E  S  S  E  E  +Q   S S  S     +S
|------------------------------------|--------------------------------------|
|------------------------------------|-/10-10----10-10-(10)--x-x-10b12r(10)-|
|-5p4p2-[4]-(4)-2-4-5p4p2---4-2-(2)/-|-/11----11-11-11-(11)--x-x------------|
|-------------------------4----------|--------------------------------------|
|------------------------------------|--------------------------------------|
|------------------------------------|--------------------------------------|
|
| Q          E  E   Q         E  E       W
|------------------------------------|--------------------------------------|
|------------------------------------|--------------------------------------|
|------------------------------------|--------------------------------------|
|------------------------------------|--------------------------------------|
|-5----------x--5---7---------x--5---|---4----------------------------------|
|-3----------x--3---5---------x--3---|---2----------------------------------|


  E5
                             ~           PM|
                                |--3--|
   +Q         E   +E   +S  S E +S   S S  S S
|------------12--(12)-------------------------|
|-(10)b12===(10)-(10)r(10)---9-(9)h10p9-------|
|---------------------------------------11-9--|
|---------------------------------------------|
|---------------------------------------------|
|---------------------------------------------|
|
|   W
|---------------------------------------------|
|---------------------------------------------|
|---------------------------------------------|
|---------------------------------------------|
|---2-----------------------------------------|
|---0-----------------------------------------|


  B5                  F#5
  Gtr V
  W
|-----------------------|
|-----------------------|
|-----------------------|
|-----------------------|
|-----------------------|
|-----------------------|
|
| Gtr IV
| ~~   PM|     ~~
| Q.   S S a e Q.
|-----------------------|
|----------7s9-7--------|
|-7--------7s9-7--------|
|------9-7--------------|
|-----------------------|
|-----------------------|
|
| Gtrs II, III
| H.              +E  E
|-----------------------|
|-----------------------|
|-----------------------|
|-4---------------(4)---|
|-2---------------(2)-4-|
|---------------------2-|


                                                                   Pre-Chorus
  G5                         A5                         G5/D        G#5/D#        B5/F#
                                                                     ~~
                              |------6-------|  |------6-------|
   H                          S  S  S  S  S  S  S  S  S  S  S  S     W
|----------------------------------------------------------------||-16--------------|
|-------------------------------------------------------14-16-17-||-----------------|
|-------------------------------------13-14-16-13-14-16----------||-----------------|
|----------------------------13-14-16----------------------------||-----------------|
|----------------------------------------------------------------||-----------------|
|----------------------------------------------------------------||-----------------|
|
|                                                                    ~~
|  |--3--|                    |------6-------|  |------6-------|
|  S  S  S  S  S  S  S  S  S  S  S  S  S  S  S  S  S  S  S  S  S     W
|-------------------------------------------------------12-14-16-||-19--------------|
|-------------------------------------12-14-16-12-14-16----------||-----------------|
|-------------------11-13-14-11-13-14----------------------------||-----------------|
|-13h14p13-11-13-14----------------------------------------------||-----------------|
|----------------------------------------------------------------||-----------------|
|----------------------------------------------------------------||-----------------|
|

I hope it's readable.

EDIT: Here's a powertab if you have it.
Attachments:
megadeth-a_tout_le_monde_set_me_free-24485.zip