#2
Here you go.
     E  E  S  S S  S E  E  S S S S    E  E  S S S S S S S S S E  S  
E||--------------------------------|-------------------------------|
B||--------------------------------|------------6-8-9-8-6----------|
G||--------6h-7-6h-7-------6-7-6-7-|--------6-7-----------7-6-7--L-|
D||--8--8------------8--8----------|--8--8-------------------------|
A||--------------------------------|-------------------------------|
E||--------------------------------|-------------------------------|


   E   E   S  S  S  S  E   E   S  S  S  S  
------------------------------------------|
------------------------------------------|
----------11-12-11-12---------11-12-11-12-|
--13--13--------------13--13--------------|
------------------------------------------|
------------------------------------------|


   E   E   S  S  S  S  S  S  S  S  S  E   S    E  E  S  S S  S E  E  S S S S  
--------------------------------------------|--------------------------------|
----------------11-13-14-13-11--------------|--------------------------------|
----------11-12----------------12-11-12---L-|--------6h-7-6h-7-------6-7-6-7-|
--13--13------------------------------------|--8--8------------8--8----------|
--------------------------------------------|--------------------------------|
--------------------------------------------|--------------------------------|


  E  E  S S S S S S S S S E  S     S S  S S  S S  S  S  S S  S S S S  S S  
-------------------------------|----------8-11-8-10-----------------------|
------------6-8-9-8-6----------|-----8-11-----------11----8-11-8-9-8------|
--------6-7-----------7-6-7--L-|--10-------------------10------------10-8-|
--8--8-------------------------|------------------------------------------|
-------------------------------|------------------------------------------|
-------------------------------|------------------------------------------|


                                 W         
  S   S S S S S S S S S  S S S S E         
------------------------------------|----||
------------------------------------|----||
--8br-6---6-------------------------|----||
--------8---8-6---6-----------------|----||
----------------8---8-6h-7---6------|----||
---------------------------9---9-6--|----||


Duration Legend
---------------
W - whole
H - half
Q - quarter
E - 8th
S - 16th
T - 32nd
X - 64th
. - note dotted
|-n-|  - n-tuplets


Tablature Legend
----------------
L - tied note
x - dead note
g - grace note
(n) - ghost note
> - accentuded note
NH - natural harmonic
AH - artificial harmonic
TH - tapped harmonic
SH - semi harmonic
PH - pitch harmonic
h - hammer on
p - pull off
b - bend
br - bendRelease
pb - preBend
pbr - preBendRelease
brb - bendReleaseBend
\n/ - tremolo bar dip
\n - tremolo bar dive
-/n - tremolo bar Release up
/n\ - tremolo bar inverted dip
/n - tremolo bar return
-\n - tremolo bar Release down
S - shift slide
s - legato slide
/ -  slide into from below or out of upwards
\ -  slide into from above or out of downwards
~ - vibrato
W - wide vibrato
tr - trill
TP - tremolo picking
T - tapping
S - slap
P - pop
< - fade in
^ - brush up
v - brush down