#1
On a video, someone plays them at the end of a couple of short Jazz licks... any idea what chords they are? Thanks.

E ------------8-----------
B ------------8-----------
G ------------8-----------
D ------------8-----------
A ------------11----------
E ------------8----------

E ------------8-----------
B ------------11---------
G ------------8-----------
D ------------10---------
A -------------11--------
E -------------8----------

p.s. I think only the five strings E-A were strummed.
Last edited by geetarmanic at Mar 28, 2008,
#4
One thing to remember, which tends to make jazz confusing for people, is that
some chords, while looking like it's a certain chord, may be functioning as some
other kind of chord or inversion of another chord. It's hard to say without more
context.

"Jazz Guitar Comping" by Andrew Green demonstrates this beautifully.