#1
E|-12--13--15--17---20-17------17-20-17------18--20-17------17-20----------|
B|-----------------------18--18--------18--18---------18--18-----18--18-20-|
G|-------------------------19------------19-------------19---------19------|
D|-------------------------------------------------------------------------|
A|-------------------------------------------------------------------------|
D|-------------------------------------------------------------------------|

E|-20-17------17-20-17------17---20b(22)r20-17-24~~~-|
B|------18--18--------18--18-------------------------|
G|--------19------------19---------------------------|
D|---------------------------------------------------|
A|---------------------------------------------------|
D|---------------------------------------------------|


Where would the down/up strokes be for these sweeps? Could you label them please.

Thanks.

If you don't understand then please say.
#2
The first (20) is downstroked and upstroke your way through the sweep to 19 on the G string then downstroke your way to the high E, then upstroke the next 20 that appears and then downstroke the 17 and then upstroke your way to 18 and 19 then downstroke again.
TESTAMENT, SCAR SYMMETRY......SELF EXPLANATORY


ALEX SKOLNICK, PER NILSSON........ADULATION MANDATORY


Gear: JACKSON RR3


Member#25 of the IRON MAIDEN ARE GODS CLUB. PM Revelations to Join
Last edited by breakstuff at Mar 29, 2008,
#3
  
                        [B]v         h  v            h v           v [/B]
E|-12--13--15--17---20-17------17-20-17------18--20-17------17-20--------[B]h[/B]-|
B|-----------------------18--18--------18--18---------18--18-----18--18-20-|
G|-------------------------19------------19-------------19---------19------|
D|-------------------------[B]^[/B]------ ------[B]^[/B]---------------[B]^[/B]----------[B]^[/B]------|
A|-------------------------------------------------------------------------|
D|-------------------------------------------------------------------------|


was that what you were asking?
Gear:
Inflatable Guitar
Digitech GSP 2101/Mosvalve 962/Yamaha S412V
My Imagination