#1
Yo Ho Drink Up!

Just thought to share btw this guy is pretty good.
"You've got to trust your instinct
And let go of regret
You've got to bet on yourself now star
'Cause that's your best bet" - 311
#2
f_k me thats cool
'08 Gretsch White Falcon
'98 Fender USA Deluxe Tele
'79 Greco Les Paul Standard
Airline Stratotone Crafter GAE8

A bunch of funky pedals

Handwired 50 Watt Plexi Lead Clone w/ Orange 4x12
#4
That was fantastic. Just watched 3 last night. Love those movies, and this did the theme justice for sure.
I'm not a fan of facts. You see, the facts can change, but my opinion will never change, no matter what the facts are. - Stephen Colbert

#12
There's someone whose tabbed a simpler version of that, it still sounds pretty good. But on the video there's two guitars so it's hard to get the same sound. The song is called "He's a pirate", so search it and you should find a version that's based on that video
Gear:
Cort AD-850 NS
MIM Strat
Cube 30x
#13
Hi UGER'S THIS IS LIGER02 PRESENTING TO YOU THE TAB OF PIRATE OF THE CARIBBEAN [MAIN THEME] ON GUITAR. I'M STILL WORKING ON THE RHYTHM PART THIS IS JUST THE INSTRUMENTAL.

|------------------------------------------------|
|-------------------------------------------x----|
|-------------------------------------------7----|
|-------------------------------------------x----|
|---6-66-66-666-66-66-66-666-6---------|
|---X--------------------------------------------|

|----------------------------------------------|
|---------------5-66--6-8-55---------------|
|-----5-77--7------------------7-5-7-------| 2X
|---7------------------------------------------|
|----------------------------------------------|
|----------------------------------------------|

|-------------------------5-66-5-5---------------------5------------------------|
|---------------6-88--8------------8-5---------66--8---5----5-66-8-5-6----|
|-----5-77--7-------------------------------5-7-------------7------------------|
|---7------------------------------------------------------------------------------|
|-----------------------------------------------------------------------------------|
|-----------------------------------------------------------------------------------|

|--------------------------------------------|
|---------------5-66--6-8-55-------------|\
|-----5-77--7-----------------7-5-7------| 2X
|---7---------------------------------------|/
|--------------------------------------------|
|--------------------------------------------|

|-------------------------5-66-5--5-----|--------------5------------------------|
|---------------6-88--8----------8--5---|-------66-8---5--5-6-55------------|
|-----5-77--7----------------------------|---5-7---------------------7-5-7-----|
|---7--------------------------------|----------------------------------------------|
|------------------------------------|-----------------------------------------------|
|------------------------------------|-----------------------------------------------|

|-----------5--1----7--------------------------|
|-----66-8-----2-----7------------------------|
|---7-------------3-----8------9--9--9-------|
|--------------------------9----9-12-15------|
|------------------------------------------------|
|------------------------------------------------|

|------------------------------------------------------------------------|
|--101010-11-10--888-8-10---101010-11-10----8-6-5-6----|
|--101010----------999----------101010-------------9-7-6-7---|
|------------------------------------------------------------------------|
|------------------------------------------------------------------------|
|------------------------------------------------------------------------|

|------------------------------------------------------------------------------|
|--------8108----------8-10-8----810-8----------------------------------|
|--7910------10-9-10---------10---------10-9-10-7-9--9P7\5-7-----|
|------------------------------------------------------------------------------|
|------------------------------------------------------------------------------|
|------------------------------------------------------------------------------|

|----------------------------------------------------------------------------------|
|---------------8----8-10-8---------------81011-8----------------------------|
|--7910-910---10---------10-7--7910------------910-9-7-9-7-5---------|
|----------------------------------------------------------------------------------|
|----------------------------------------------------------------------------------|
|----------------------------------------------------------------------------------|

|---------------------------------------------------|
|---10-11--101010-108-8-6-565-3----------|\
|---------------------------------------------------| 2X
|---------------------------------------------------|/
|---------------------------------------------------|
|---------------------------------------------------|

|--------------------------------8------------------------------------|
|---7-10---7-11----7-1010---108---8-6---5-6-5---------------|\
|--7-------7--------7----------------------9------5------7------------| 2X
|-7-------7-------7--------------------------------5-------------------|/
|----------------------------------------------------------------------|
|----------------------------------------------------------------------|


I think the chords are Am Fm C G (Still working "again" for the other chords)
Last edited by Liger02 at Apr 2, 2008,