#1
ive looked at the tabs and the solos all sound (the fast part) wrong to me so i was wondering if anybody knows what it is or if im doing it wrong? Or could somebody be awesome and tab it out.

This one sounds close but i dont think its right

|---------------------------------------------------------|
A|---------------------------------------------------------|
F|------------------------------ 7-7-9-9-11-11--------------|
C|-7-7-9-9-11-11--7-7-9-9-11-11----------------------------|
G|---------------------------------------------------------|
C|---------------------------------------------------------|

D|---------------------------------------------------------|
A|---------------------------------------------------------|
F|------------------------------ 7-7-9-9-11-11/13-----------|
C|-7-7-9-9-11-11--7-7-9-9-11-11----------------------------|
G|---------------------------------------------------------|
C|---------------------------------------------------------|

D|---------------------------------------------------------|
A|---------------------------------------------------------|
F|------------------------------ 7-7-9-9-11-11/13/14--------|
C|-7-7-9-9-11-11--7-7-9-9-11-11----------------------------|
G|---------------------------------------------------------|
C|---------------------------------------------------------|

D|-------------------------------------17--16--------------|
A|-9-10-12-9-10-12--12b-10b---12b-10---19b-18b-
F|---------------------------------------------------------|
C|---------------------------------------------------------|
G|---------------------------------------------------------|
C|---------------------------------------------------------|


heres the the link to the other one that someone had but it sounds way wrong

http://ultimate-guitar.com/tabs/e/escape_the_fate/guillotine_ver2_tab.htm

the top one is the one that is in the guitar pro tab.